Cifra Club

Aprenda

I Gotta Tell Someone

UB40

Tab de bajo: Principal
Album - Who You Fighting For
Tabbed By : Mat Bean
e-mail: *

G|-----------------------------------|
D|--------------------757-----979----|
A|----575757--------5-----5-5-----7--|
E|-----------5-5--5------------------|

G|----------------------------------|
D|----------------------------------|
A|----575757--------7-5-55555-77----|
E|-----------5-5--5--------------7--|


Comments; Repeat thro'out song.
Compositor UB40
25 reproducciones

0 comentarios

Mostrar mais comentários

¿Conseguiste tocar?

0 Tocaron 0 Ainda não

Grave um vídeo tocando I Gotta Tell Someone e mande pra gente!

00:00 / 00:00
outros vídeos desta música
repetir qualidade Automático
Outros vídeos desta música
00:00 / 00:00
Automático
OK