Cifra Club

Aprenda

I Think Its Going To Rain Today

UB40

Tab de bajo: Principal
Album-Signing off
Tabbed by-Matt Bean
E*

  intro,
G|--------------------3-33-------|
D|-3--33--3-3--33---3------3--33-|
A|--53-------53-------------53---|
E|-------------------------------|

G|---------------------33-3-3-3-33-|
D|-33--33--3-3---33---3--3-3-3-----|
A|---53--------53------------------|
E|---------------------------------|

G|---------------------33-3-3-3-33-|
D|-33--33--3-3---33---3--3-3-3-----|
A|---53--------53------------------|
E|---------------------------------|

  bridge,
G|---------------------------5-3--33-55-33--|
D|-3--33--3-3---33--77-77-77--------------5-|
A|--53--------53----------------------------|
E|------------------------------------------|

  main riff, 
G|-----------------3333-3-3---------|
D|-333-----333-------------33-3-----|
A|----5533----5533-------------5533-|
E|----------------------------------|

Compositor Randy Newman
22 reproducciones

0 comentarios

Mostrar mais comentários

¿Conseguiste tocar?

0 Tocaron 0 Ainda não

Grave um vídeo tocando I Think Its Going To Rain Today e mande pra gente!

00:00 / 00:00
outros vídeos desta música
repetir qualidade Automático
Outros vídeos desta música
00:00 / 00:00
Automático
OK