Cifra Club

Aprenda

King

UB40

Tab de bajo: Principal
 Tabbed by - Mat Bean
 E-mail - *


   main riff
G|----------------------------------------|
D|--9------99-9----99------7777-----7777--|
A|----7777------77-----5-5------5-5-------|
E|----------------------------------------|


G|-------------------------------------------|
D|--7-------7-7-7---7-5-----------------5-7--|
A|----5-5-5-------5-----8-8-5-----5-7-7------|
E|----------------------------8-8------------|


G|----------------------------------------|
D|--9-9-----9-9----99-----7777------7777--|
A|------7-7-----77----5-5------55-5-------|
E|----------------------------------------|


G|-----------------------------------------------|
D|------7-7-7---7---7---7-5-----------------5-7--|
A|--5-5-------5---5---------8-8-5-----5-7-7------|
E|--------------------------------8-8------------|


   during sax
G|------------------------------------------|
D|--9------99-9----99------7777------77-----|
A|----7777------77----55-5------55-5----55--|
E|------------------------------------------|


G|-------------------------------------------|
D|------9-9-----99----------7777------77-----|
A|--7-7-----7-7----77---5-5------55-5----55--|
E|-------------------------------------------|


G|-----------------------------------------|
D|------9-9-----99----------77-7-----7777--|
A|--7-7-----7-7----77---5-5------5-5-------|
E|-----------------------------------------|

   repeat main riff with improv. thro'out
Compositor Ali Campbell / Brian Travers / Falconer / Hassan / Michael Virtue / Robin Campbell / Terence Wilson
47 reproducciones

0 comentarios

Mostrar mais comentários

¿Conseguiste tocar?

0 Tocaron 0 Ainda não

Grave um vídeo tocando King e mande pra gente!

00:00 / 00:00
outros vídeos desta música
repetir qualidade Automático
Outros vídeos desta música
00:00 / 00:00
Automático
OK