Cifra Club

Please Dont Make Me Cry

UB40

Tab de bajo: Principal
    Album - Labour of Love
    Tabbed by - Mat Bean
    E-mail - *


  G|---------------------------------------------|
  D|-------------------------6-6-6-6---6-6--6-6--|
  A|----6-6-6-6---6-6-6-6--4---------4-----------|
  E|--4---------4--------------------------------|

  G|------------------------------------------------|
  D|-------8-8-8-8-----6-6-6-6----------------------|
  A|--6-6----------\4------------6-6-6-6-----6-6-6--|
  E|---------------------------4---------4-4--------|

  G|---------------------------------------------|
  D|-------------------------6-6-6-6---6-6--6-6--|
  A|----6-6-6-6---6-6-6-6--4---------4-----------|
  E|--4---------4--------------------------------|

  G|------------------------------------------------|
  D|-------8-8-8-8-----6-6-6-6----------------------|
  A|--6-6----------\4------------6-6-6-6---6-6/8\6--|
  E|---------------------------4---------4----------|

   repeat thro out song
Composición de W. Tucker
76 vistas

0 comentarios

Ver todos los comentarios

¿Lograste tocar?

0 Tocaron 0 Aún no

¡Graba un video tocando Please Dont Make Me Cry y envíanoslo!

00:00 / 00:00
Outros vídeos desta música
Repetir Calidad Automático
Outros vídeos desta música
00:00 / 00:00
Automático
OK