Cifra Club

Aprenda

Rat In Mi Kitchen

UB40

Tab de bajo: Principal
    Album - Rat in the Kitchen
    Tabbed by - Mat Bean
    E-mail - *

    intro; part 1
  G|------------------------------------------|
  D|------------------------------------------|
  A|-------------------------------7--707-07--|
  E|--7----5----0--5(0)-----7----5------------|

    intro; part 2
  G|--------------------------------------------|
  D|--------------------------------------------|
  A|-------------------------------7---7777-----|
  E|--7----5---(0)----------7----5---7------77--|

     riff 1;
  G|-------------------------------------|
  D|-------------------------------------|
  A|--------------5----------------------|
  E|--7--5-7--5-7---7---5-7777-0-0--0-5--|

     riff 2;
  G|---------------------------------------|
  D|---------------------------------------|
  A|--------------5-----------------5------|
  E|--7--5-7--5-7---7---5-7777--5-7---7-5--|
     repeat riff 1;

     riff 3;
  G|------------------------------------|
  D|------------------------------------|
  A|--------------5------------7-7-5-0--|
  E|--7--5-7--5-7---7---5-7777----------|
     repeat riff 1;

     riff 4
  G|----------------------------------------|
  D|----------------------------------------|
  A|--------------5---------------5-7-5-0---|
  E|--7--5-7--5-7---7---5-7777--5-----------|
     repeat riff 1+2;

  G|-------------------------------------|
  D|-------------------------------------|
  A|--------------5---7777-5-5-4-4-------|
  E|--7--5-7--5-7---7---------------7-7--|
     repeat riff 1,5 etc...
Compositor UB40
187 reproducciones

0 comentarios

Mostrar mais comentários

¿Conseguiste tocar?

0 Tocaron 0 Ainda não

Grave um vídeo tocando Rat In Mi Kitchen e mande pra gente!

00:00 / 00:00
outros vídeos desta música
repetir qualidade Automático
Outros vídeos desta música
00:00 / 00:00
Automático
OK