Cifra Club

Aprenda

Sardonicus

UB40

Tab de bajo: Principal
 Album - Present Arms
 Tabbed by - Mat Bean
 E-mail - *


   riff 1
G|----------------------------------------------------------|
D|---------------------3-3--5-5--3--------------------------|
A|--5-5--3-5-5--3--5-5-------------55-3-55-3-55----------3--|
E|----------------------------------------------1-1--3-1----|

G|-----------------------------------------------------------|
D|---------------------3-3--5-5--3-------------------5--3----|
A|--5-5--3-5-5--3--5-5-------------5-5--3h5--5-5----------3--|
E|-----------------------------------------------1-1---------|

  riff 2
G|----------------------------------------------------------|
D|---------------------------------------------3-3--5--3----|
A|--5-5-5-5-3-5--3---------------5-5-5-53h5-55-----------3--|
E|-----------------1-1-1-1-3-1-3----------------------------|

G|--------------------------------------------------|
D|-------------------------------------------5-3----|
A|--5-5-3h5-5-5----------------5-5---3h5---------3--|
E|--------------1-1-1--3-3-1-3-----------1-1--------|

   return to riff 1 & repeat thro'out
Compositor UB40
21 reproducciones

0 comentarios

Mostrar mais comentários

¿Conseguiste tocar?

0 Tocaron 0 Ainda não

Grave um vídeo tocando Sardonicus e mande pra gente!

00:00 / 00:00
outros vídeos desta música
repetir qualidade Automático
Outros vídeos desta música
00:00 / 00:00
Automático
OK