Cifra Club

Silent Witness

UB40

Tab de bajo: Principal
Album; Present Arms
Tabbed by; Matt Bean
E-mail; *

  riff 1
G|----------------------------------------------|
D|--3---------3-3----------------0-2--3---------|
A|----5-3---------5-3------3-1-3--------5-3-----|
E|--------5-1---------5-1-------------------5-1-|

   riff 2
G|---------------------------------------------|
D|-------0--2-----0-2--3-3---------3-3---------|
A|--1--3------1-3----------5-3---------5-3-----|
E|-----------------------------5-1---------5-1-|

   riff 3
G|-----------------------------------------------------|
D|--5-5-------5--3-3-------3--3-3----------3-3---------|
A|------7---7--------5---5--------5-3----------5-3-----|
E|--------8------------6--------------5-1----------5-1-|

G|------------------------------------------------------|
D|--5-5-------5-5h7--3-------3--3-3---------3-3---------|
A|------7---7----------5---5--------5-3---------5-3-----|
E|--------8--------------6--------------5-1---------5-1-|

  return to riff 1 and pretty much repeat thro out
reproducciones 26
Composição: UB40

0 comentarios

mostrar más comentarios

¿Conseguiste tocar?

0 tocaron 0 aún no

¡Graba un vídeo tocando Silent Witness y envianoslo!

00:00 / 00:00
outros vídeos desta música
repetir qualidade Automático
Outros vídeos desta música
00:00 / 00:00
Automático
OK