Cifra Club

Tell It Like It Is

UB40

Tab de bajo: Principal
Acompaña nuestras novedades de Cifra Club en español.
¡Sigue nuestro perfil en Instagram!
    Album - Rat in the Kitchen
    Tabbed by - Mat Bean
    E-mail - *

    intro;
  G|--------------------------------|
  D|--------------------------------|
  A|--------------------------------|
  E|--77-9----55-7----77-9----55-7--|

     main riff;
  G|-----------------------------------|
  D|-----------------------------------|
  A|--7777-----------9999--------------|
  E|-------9-7--77-9------9-7----55-7--|
            'I just tell it like it is'...

     riff 2;
  G|--------------------------------------------------------|
  D|--------------------------------------------------------|
  A|--5-5-55-----------4-7--7-4--5-5-55-----------4-7--7-4--|
  E|---------7-5--5555------------------7-5--5555-----------|
       'Now let me tell you more'...

        Structure; intro  X1
                   riff 1 X4
                   riff 2 X1
                   riff 1 X6
                   riff 2 X1
                   riff 1 X6
                   riff 2 X1
                   riff 1 repeat to fade
Composición de Ali Campbell / Earl Falconer / Jim Brown / Norman Hassan / Robin Campbell / UB40
23 vistas

0 comentarios

Ver todos los comentarios

¿Lograste tocar?

0 Tocaron 0 Aún no

¡Graba un video tocando Tell It Like It Is y envíanoslo!

00:00 / 00:00
Outros vídeos desta música
Repetir Calidad Automático
Outros vídeos desta música
00:00 / 00:00
Automático
OK