Cifra Club

All Or Nothing

UFO

Tablatura: Principal (guitarra)
Tom: G
(intro)

e|------------2-----------|-----------3-2h3p2------|
b|-----------------3------|-------------------3----|
g|-------2----------------|-------2-------------2--|
d|--0---------------------|--0---------------------|
a|------------------------|------------------------|
e|------------------------|------------------------|

e|------------2-----------|-----------3-2h3p2------|
b|-----------------3------|-------------------3----|
g|-------2----------------|-------2-------------2--|
d|--0---------------------|--0---------------------|
a|------------------------|------------------------|
e|------------------------|------------------------|

Verse 1)
(fig) 1)
   i thought you listened
e|------------------------|------------------------|
b|------------2-----------|------------2-----------|
g|-----------------2------|-----------------2------|
d|-------2----------------|-------2----------------|
a|--0---------------------|--0---------------------|
e|------------------------|------------------------|

  to my reasoning
e|------------2-----------|-----------3-2h3p2------|
b|-----------------3------|-------------------3----|
g|-------2----------------|-------2-------------2--|
d|--0---------------------|--0---------------------|
a|------------------------|------------------------|
e|------------------------|------------------------|

   but now i see
e|------------------------|------------------------|
b|------------2-----------|------------2-----------|
g|-----------------2------|-----------------2------|
d|-------2----------------|-------2----------------|
a|--0---------------------|--0---------------------|
e|------------------------|------------------------|

  you don't hear a thing
e|------------2-----------|-----------3-2h3p2------|
b|-----------------3------|-------------------3----|
g|-------2----------------|-------2-------------2--|
d|--0---------------------|--0---------------------|
a|------------------------|------------------------|
e|------------------------|------------------------|

(pre-chorus 1)
(fig) 2)
E|                                         --------|
B|                                         --------|
G|                                         --7--6--|
D|                                         --7--6--|
A|                                         --5--4--|
E|                                         --------|

  tried to make you see
e|------------------------|------------------------|
b|------------------------|------------------------|
g|------------------------|------------------7--6--|
d|--5---------------------|-(5)--------------7--6--|
a|--5---------------------|-(5)--------------5--4--|
e|--3---------------------|-(3)--------------------|

  how it's got to be        yes it's alright
e|------------------------|------------------------|
b|------------------------|------------------------|
g|------------------------|------------------------|
d|--7---------------------|-(7)--------------------|
a|--7---------------------|-(7)--------------------|
e|--5---------------------|-(5)--------------------|

chorus)
(fig) 3)
  all or nothing
e|------------------------|------------------------|
b|------------------------|------------------------|
G|--7---------------------|--7 \ 6----6 \ 4--------|
D|--7---------------------|--7 \ 6----6 \ 4--------|
A|--5---------------------|--5 \ 4----4 \ 2--------|
e|------------------------|------------------------|

   all or nothing
e|------------------------|------------------------|
b|------------------------|------------------------|
g|--4---------------------|------------------------|
D|--4---------------------|--9 \ 7----7 \ 5--------|
A|--2---------------------|--9 \ 7----7 \ 5--------|
E|------------------------|--7 \ 5----5 \ 3--------|

   all or nothing          for me
e|------------------------|------------------------|
b|------------------------|------------------------|
g|------------------------|------------------------|
d|--5---------------------|--7---------------------|
a|--5---------------------|--7---------------------|
e|--3---------------------|--5---------------------|

(verse 2)
(fig) 1)
Things could work out
Just like i want them to yeah
If i could have
The other half of you

(Pre-chorus 2)
(fig) 2)
Yes you know i would
If i only could

(chorus)
(fig) 3)
All or nothing
All or nothing
All or nothing for me

(solo)
e|------------------------|------------------------|
b|--/10---10---10---12----|--/14~~---------12--14--|
g|------------------------|------------------------|
d|------------------------|------------------------|
a|------------------------|------------------------|
e|------------------------|------------------------|
 |                        |                        |
e|------------------------|------------------------|
b|------------2-----------|------------2-----------|
g|-----------------2------|-----------------2------|
d|-------2----------------|-------2----------------|
a|--0---------------------|--0---------------------|
e|------------------------|------------------------|

e|-(12/14~~~)-------------|------------------------|
b|--14/15~~~--------------|------------------------|
g|------------------------|------------------------|
d|------------------------|------------------------|
a|------------------------|------------------------|
e|------------------------|------------------------|
 |                        |                        |
e|------------2-----------|-----------3-2h3p2------|
b|-----------------3------|-------------------3----|
g|-------2----------------|-------2-------------2--|
d|--0---------------------|--0---------------------|
a|------------------------|------------------------|
e|------------------------|------------------------|

e|------------------------|------------------------|
b|--/10---10---10---12----|--/14~~---------12--14--|
g|------------------------|------------------------|
d|------------------------|------------------------|
a|------------------------|------------------------|
e|------------------------|------------------------|
 |                        |                        |
e|------------------------|------------------------|
b|------------2-----------|------------2-----------|
g|-----------------2------|-----------------2------|
d|-------2----------------|-------2----------------|
a|--0---------------------|--0---------------------|
e|------------------------|------------------------|

e|-(12/14~~~)-------------|-(15b^r--14~~~)---------|
b|--14/15~~~--------------|------------------------|
g|------------------------|------------------------|
d|------------------------|------------------------|
a|------------------------|------------------------|
e|------------------------|------------------------|
 |                        |                        |
e|------------2-----------|-----------3-2h3p2------|
b|-----------------3------|-------------------3----|
g|-------2----------------|-------2-------------2--|
d|--0---------------------|--0---------------------|
a|------------------------|------------------------|
e|------------------------|------------------------|

| /  slide up
| \  slide down
| h  hammer-on
| p  pull-off
| ~  vibrato
| +  harmonic
| x  mute note
reproducciones 47
Acordes para:
    Colaboración y revision:
    • Élison Duarte

    0 comentarios

    mostrar más comentarios

    ¿Conseguiste tocar?

    0 tocaron 0 aún no

    ¡Graba un vídeo tocando All Or Nothing y envianoslo!

    00:00 / 00:00
    outros vídeos desta música
    repetir qualidade Automático
    Outros vídeos desta música
    00:00 / 00:00
    Automático
    OK