Cifra Club

Alone Again Or

UFO

Tablatura: Principal (guitarra)
Tom: D
(intro)

E|---2-----3-----3/5-----5-----5-----3-----2-----3-----2-3---2-------|
B|-----3-----3-------0-----0-----0-----0-----0-----0-----------0-----|
G|-------2-----0-------0-----0-----0-----0-----0-----0-----0-----0---|
D|-0-----------------------------------------------------------------|
A|-------------------------------------------------------------------|
E|-------------------------------------------------------------------|


E|-------0-----|--0--|--0--|--0--|--0--|--0--|--0--|--0--|--0--|--0--|
B|-----0---0---|--0--|--2--|--2--|--0--|--0--|--2--|--0--|--2--|--0--|
G|---0-------0-|--0--|--3--|--3--|--0--|--0--|--3--|--0--|--3--|--0--|
D|-4-----------|--4--|--4--|--4--|--4--|--4--|--4--|--4--|--4--|--4--|
A|-------------|-----|-----|-----|-----|-----|-----|-----|-----|-----|
E|-------------|-----|-----|-----|-----|-----|-----|-----|-----|-----|

   F#7   F#7    G6      G6     F#7   F#7    Em      A
E|---0---|---0---|---0---|---0---|---0---|---0---|---0---|---0---|
B|---0---|---0---|---0---|---0---|---0---|---0---|---0---|---2---|
G|---3---|---3---|---4---|---4---|---3---|---3---|---0---|---2---|
D|---4---|---4---|---5---|---5---|---4---|---4---|---2---|---2---|
A|---4---|---4---|---5---|---5---|---4---|---4---|---2---|---0---|
E|---2---|---2---|---3---|---3---|---2---|---2---|---0---|-------|

    D      Bm       A      Bm    F#7     G6      G6
E|---2---|---2---|---0---|---2---|---0---|---0---|---0---|
B|---3---|---3---|---2---|---3---|---0---|---0---|---0---|
G|---2---|---4---|---2---|---4---|---3---|---4---|---4---|
D|---0---|---4---|---2---|---4---|---4---|---5---|---5---|
A|-------|---2---|---0---|---2---|---4---|---5---|---5---|
E|-------|-------|-------|-------|---2---|---3---|---3---|

E|--0--3--0--3--0--3-----------|
B|--2--0--2--0--2--0-----------|
G|--2--0--2--0--2--0--2-0------|
D|--2--0--2--0--2--0------4-2--|
A|--0--2--0--2--0--2----------0|
E|-----3-----3-----3-----------|

(solo)
E|-------9~~~---9h9r9----------------------9-12~~~---12--10-9-10~~~-|
B|-11-12----------------12~~~---12-11~~~----------------------------|
G|------------------------------------------------------------------|
D|------------------------------------------------------------------|
A|------------------------------------------------------------------|
E|------------------------------------------------------------------|

E|-9\7--9~~--7\6--7~~---9-10-12-10-9~~-10~~--0--3--0--3--0--3-----------|
B|-------------------------------------------2--0--2--0--2--0-----------|
G|-------------------------------------------2--0--2--0--2--0--2-0------|
D|-------------------------------------------2--0--2--0--2--0------4-2--|
A|-------------------------------------------0--2--0--2--0--2----------0|
E|----------------------------------------------3-----3-----3-----------|
reproducciones 148
Acordes para:
    Composição: Alan MacLean Colaboración y revision:
    • Diego Martins

    0 comentarios

    mostrar más comentarios

    ¿Conseguiste tocar?

    0 tocaron 0 aún no

    ¡Graba un vídeo tocando Alone Again Or y envianoslo!

    00:00 / 00:00
    outros vídeos desta música
    repetir qualidade Automático
    Outros vídeos desta música
    00:00 / 00:00
    Automático
    OK