Cifra Club

Crystal Light

UFO

Tablatura: Principal (guitarra)
Tom: C
Intro:
E|-------------------------------
B|-------------------------------
G|-----0-------0-------0-------0-
D|---2-------0-------0---0---0---
A|-3-----3-2-----0-1-------1-----
E|-------------------------------

E|---------------------------------
B|---------------------------------
G|-------0-------0-------0-------0-
D|-----2-------0-------0---0---0---
A|-2-3-----3-2-----0-1-------1-----
E|---------------------------------

E|---------------------------------
B|---------------------------------
G|-------0-------0-------0-------0-
D|-----2-------0-------2-------0---
A|-2-3-----3-2-----2-3-----0-1-----
E|---------------------------------

E|-----------------------------------
B|-------------------------------2---
G|-------0-------0-------0---------2-
D|-----2-------0-------2---2---2-----
A|-1-3-----3-2-----2-3-------0-------
E|-----------------------------------

D        D/C#   Bm        D         D/C#  Bm
Standin' by the roadside, views are in my hand
D        D/C#      Bm     D
Coat I'm wearing's blowin cold
Bb      C           D
Turn my back to the wind
D      D/C#       Bm
Winter mists along the coast
D     D/C#        Bm
City lights close down
D    D/C#    Bm    D
Your empty station there
Bb         C        D
Train line cuts the ground
Bb         C        D
Train line cuts the ground

Em             D
Crystal light shinin' bright
D                 C
Shine on down for me
C            D                       Em
Good is even passin' by, dying not received
Em            D                              C
Like a fool I hit that road, took my time to see
C             D
Life was only foolin'

D      D/C#      Bm         D       D/C#    Bm
Locust Berry burns my love, find it hard to breathe
D       D/C#    Bm      D     Bb       C         D
The hospital shut their gates, I can't get me no peace
D      D/C#      Bm             D       D/C#    Bm
Weaker people stand and scream, stumble in the road
D         D/C#      Bm
Close my eyes, turn off the lights
Bb        C       D      Bb       C       D
Timeless, found a dream, timeless found a dream

Em             D
Crystal light shinin' bright
D                 C
Shine on down for me
C            D                       Em
Good is even passin' by, dying not received
Em            D                              C
Like a fool I hit that road, took my time to see
C             D                          Em
Life was only foolin', you'd be back for me

Solo::  Em  D  C     C  D  Em       Em  D  C         C  D  Em

Em             D
Crystal light shinin' bright
D                 C
Shine on down for me
C            D                       Em
Good is even passin' by, dying not received
Em            D                              C
Like a fool I hit that road, took my time to see
C             D          Em
Life was only foolin'
reproducciones 107
Acordes para:
    Composição: Michael Schenker / Phil Mogg Colaboración y revision:
    • Andrey Ribeiro
    • Élison Duarte

    0 comentarios

    mostrar más comentarios

    ¿Conseguiste tocar?

    1 tocaron 0 aún no

    ¡Graba un vídeo tocando Crystal Light y envianoslo!

    00:00 / 00:00
    outros vídeos desta música
    repetir qualidade Automático
    Outros vídeos desta música
    00:00 / 00:00
    Automático
    OK