Cifra Club

Follow You Home

UFO

Tablatura: Principal (guitarra)
Tom: C
(fig 1)
         D  C  D
E|-----5--x--5---|
B|-----7--5--7---|
G|-----7--5--7---|
D|-----7--5--7---|
A|-----5--x--5---|
E|-----5--x--5---|

(fig 2)
       F  E  D
E|---1--0--2--3-2----|
B|---1--0--3------2--|
G|---2--1--2---------|
D|---3--2--0---------|
A|---3--2--x---------|
E|---1--0--x---------|

(fig 1)
If you want me to do everything girl just for you
(fig 1)
Change your mind telling me lies
(fig 2)
Come and see you in the morning come and see u in the morning

(fig 1)
Time after time, told me lies these are things girl which I despise
(fig 1)
If I go wrong in your eyes,
(fig 2)
Leave you girl in the morning, Leave you girl in the morning

(solo) See end of page for the solo

(fig 1)
As time goes by wish you had never treated me so bad
(fig 1)
You know you're only going to want me back
(fig 2)
Far away in the morning far away in the morning

(fig 1)
If you want me to do everything girl just for you
(fig 1)
Change your mind telling me lies
(fig 2)
Come and see you in the morning, come and see you in the morning
(fig 2)
Follow you home in the morning, follow you home in the morning

(solo)
E|--------------------------------------|
B|-------------------------------10-----|
G|---10---------10-12-12b14-8----10-----|
D|---12-10-12----------------10-----12--|
A|--------------------------------------|
E|--------------------------------------|

E|--------------------------------------|
B|--------------------------------------|
G|---------10----10----10----12----10---|
D|---10S12----12----12----12----12------|
A|--------------------------------------|
E|--------------------------------------|

E|--------------------------------------|
B|---------10--13b15--------------------|
G|---12b14-----------12--10--12---------|
D|------------------------------12------|
A|--------------------------------------|
E|--------------------------------------|

E|---10----10-------10--13b15--10----10-------10--13b15--10----10-|
B|------13----13b15---------------13----13b15---------------13----|
G|----------------------------------------------------------------|
D|----------------------------------------------------------------|
A|----------------------------------------------------------------|
E|----------------------------------------------------------------|

E|---------10-------10-------10-------10--------------------------|
B|---13b15----13b15----13b15----13b15----13p10--------------------|
G|---------------------------------------------12-----------------|
D|----------------------------------------------------------------|
A|----------------------------------------------------------------|
E|----------------------------------------------------------------|

E|----------------------------------------------------|
B|--------10-10------10-10------10-10------10-10------|
G|---12b14------12b14------12b14------12b14-------12--|
D|----------------------------------------------------|
A|----------------------------------------------------|
E|----------------------------------------------------|

E|-------------------------------|
B|---10--------------------------|
G|---10--12p10----10-------------|
D|-------------12----12--10--12--|
A|-------------------------------|
E|-------------------------------|
reproducciones 27
Acordes para:
    Composição: Andy Parker / Mick Bolton / Pete Way / Phil Mogg Colaboración y revision:
    • Élison Duarte

    0 comentarios

    mostrar más comentarios

    ¿Conseguiste tocar?

    0 tocaron 0 aún no

    ¡Graba un vídeo tocando Follow You Home y envianoslo!

    00:00 / 00:00
    outros vídeos desta música
    repetir qualidade Automático
    Outros vídeos desta música
    00:00 / 00:00
    Automático
    OK