Cifra Club

I'm a Loser

UFO

Tablatura: Principal (guitarra)
Tom: A
(intro - also used during the verse)

   A                            D
|-0----0-0--0----0-0--0--0-0-|-2----2-2--2----2-2--2--2-2-|
|-2----2-2--2----2-2--2--2-2-|-3----3-3--3----3-3--3--3-3-|
|-2----2-2--2----2-2--2--2-2-|-2----2-2--2----2-2--2--2-2-|
|-2----2-2--2----2-2--2--2-2-|-0----0-0--0----0-0--0--0-0-|
|-0----0-0--0----0-0--0--0-0-|----------------------------|
|----------------------------|----------------------------|

(intro lead - with a slide)
|------------------------------------------------|
|-2//////////10-10v-----(10)\--5/////10--/14//17-|
|------------------------------------------------|
|------------------------------------------------|
|------------------------------------------------|
|------------------------------------------------|

|---------------------------------------|
|-(17)///22v----24----/19v--/17\14v-----|
|---------------------------------------|
|---------------------------------------|
|---------------------------------------|
|---------------------------------------|

(verse) (chords may not be in the exact spot but you should get the idea)

   A  D  F#m  E
|-0--2---2---0--|
|-2--3---2---0--|
|-2--2---2---1--|
|-2--0---4---2--|
|-0------4---2--|
|--------2---0--|

A                            D
 last trains eleven, its now quarter past
A                                  D
 whyre you tryin to make the evenin move so fast
A                             D
 im in real trouble but i cant go back home
A                             D
 they locked the doors and im left out alone
F#m                 E           D
 you can come to my place and sleep on the couch
F#m                E           D
 lots of people do it and we wont leave you out

(chorus)
   E5   D5              D5   C#5    B5
|--------------------|----------------------|
|--------------------|----------------------|
|-9----7\------------|-7----6------4--------|
|-9----7\------------|-7----6------4--------|
|-7----5\------------|-5----4------2--------|
|--------------------|----------------------|
 hard  times           out  on the street

  E5   D5              D5   C#5   B5
|--------------------|--------------------|
|--------------------|--------------------|
|-9----7\------------|-7----6----4--------|
|-9----7\------------|-7----6----4--------|
|-7----5\------------|-5----4----2--------|
|--------------------|--------------------|
 hard  times           hard to   beat

|-0----0----2------------------|-0----0----2--------------------|
|-2----0----3------------------|-2----0----3--------------------|
|-2----1----2------------------|-2----1----2--------------------|
|------------------------------|--------------------------------|
|------------------------------|--------------------------------|
|------------------------------|--------------------------------|
                     the painted lies                   they all

|-0----0----2------------------|-0----0----2--------------------|
|-2----0----3------------------|-2----0----3--------------------|
|-2----1----2------------------|-2----1----2--------------------|
|------------------------------|--------------------------------|
|------------------------------|--------------------------------|
|------------------------------|--------------------------------|
 hand you                  im a loser                     on the

|-0----0----2----2----2-2-2-2--|-0----0----2----2----2-2-2-2--|
|-2----0----3----3----3-3-3-3--|-2----0----3----3----3-3-3-3--|
|-2----1----2----2----2-2-2-2--|-2----1----2----2----2-2-2-2--|
|------------------------------|------------------------------|
|------------------------------|------------------------------|
|------------------------------|------------------------------|
 road                           i'm  a loser on the road

|-0----0----2----2----2-2-2-2--|-0----0----2----2----2-2-2-2--|
|-2----0----3----3----3-3-3-3--|-2----0----3----3----3-3-3-3--|
|-2----1----2----2----2-2-2-2--|-2----1----2----2----2-2-2-2--|
|------------------------------|------------------------------|
|------------------------------|------------------------------|
|------------------------------|------------------------------|

(verse 2 - same pattern as the first)

Euston station and its cold as ice
All night specials, they move you on
But me and ginger over there
We got this thing where we really take care
You can come to my place and sleep on the couch
Lots of people do it and we wont leave you out

(repeat chorus)

After the second chorus michael schenker has an incredible solo which i can't tab, but
Someone could, could you please post it; that would be amazing.

(outro)
   E5           D5 E5           E5 F#5 A5
|------------|---------------|--------------------|
|------------|---------------|--------------------|
|-9----------|-7--9----------|-9--11--14----------|
|-9----------|-7--9----------|-9--11--14----------|
|-7----------|-5--7----------|-7---9--12----------|
|------------|---------------|--------------------|
reproducciones 48
Acordes para:
    Composição: Michael Schenker / Phil Mogg Colaboración y revision:
    • Élison Duarte

    0 comentarios

    mostrar más comentarios

    ¿Conseguiste tocar?

    1 tocaron 0 aún no

    ¡Graba un vídeo tocando I'm a Loser y envianoslo!

    00:00 / 00:00
    outros vídeos desta música
    repetir qualidade Automático
    Outros vídeos desta música
    00:00 / 00:00
    Automático
    OK