Cifra Club

Profession Of Violence

UFO

Cifrado: Versão 2 (guitarra y guitarra eléctrica)
tono: C


  Am               Am      Am/G     
e|--------0-------|----------------|
B|------1---1-----|--1-------1-----|
G|----2-------2---|----2-------2---|
D|--2-----------2-|------2-------2-|
A|0---------------|0---------------|
E|----------------|--------3-------|

  Fmaj7            Em               
e|------0-0-------|--------0-------|
B|----1-----1-----|----------0-----|
G|--2---------2---|------0-----0---|
D|3-------------3-|----2---------0-|
A|----------------|--2-------------|
E|----------------|0---------------|

  Dm               C                
e|------1-1-------|--------0-------|
B|----3-----3-----|------1---1-----|
G|--2---------2---|----0-------0---|
D|0-------------0-|--2-----------2-|
A|----------------|3---------------|
E|----------------|----------------|

  Fmaj7            Em               
e|------0-0-------|--------0-------|
B|----1-----1-----|----------0-----|
G|--2---------2---|------0-----0---|
D|3-------------3-|----2---------0-|
A|----------------|--2-------------|
E|----------------|0---------------|

  Am               Am      
e|--------0-------|0---------------|
B|------1---1-----|1---------------|
G|----2-------2---|2---------------|
D|--2-----------2-|2---------------|
A|0---------------|0---------------|
E|----------------|----------------|

  Fmaj7                            Em               
e|------------0---0---------------|----------------0---------------|
B|--------1-----------1-----------|--------------------0-----------|
G|----2-------------------2-------|------------0-----------0-------|
D|3---------------------------3---|--------2-------------------0---|
A|--------------------------------|----2---------------------------|
E|--------------------------------|0-------------------------------|
          Hey     babe   what we   gon_____na       do 


  G/B                              Am
e|----------------3---------------|----------------0---------------|
B|------------0-------0-----------|------------1-------1-----------|
G|--------0---------------0-------|--------2---------------2-------|
D|----0-----------------------0---|----2-----------------------2---|
A|2-------------------------------|0-------------------------------|
E|--------------------------------|--------------------------------|
      No  look behind        me    glances 


  Dm                               E/B                
e|------------1---1---------------|----------------0---------------|
B|--------3-----------3-----------|------------0-------0-----------|
G|----2-------------------2-------|--------1---------------1-------|
D|0---------------------------0---|----2-----------------------2---|
A|--------------------------------|2-------------------------------|
E|--------------------------------|--------------------------------|
          Straight time                this time we'll take our 
                  

  Am                               Am              Am/G     
e|----------------0---------------|--------------------------------|
B|------------1-------1-----------|----1---------------1-----------|
G|--------2---------------2-------|--------2---------------2-------|
D|----2-----------------------2---|------------2---------------2---|
A|0-------------------------------|0-------------------------------|
E|--------------------------------|----------------3---------------|
  chances____


  Fmaj7                            Em               
e|------------0---0---------------|----------------0---------------|
B|--------1-----------1-----------|--------------------0-----------|
G|----2-------------------2-------|------------0-----------0-------|
D|3---------------------------3---|--------2-------------------0---|
A|--------------------------------|----2---------------------------|
E|--------------------------------|0-------------------------------|
          Dar_____ling   it's been so      long 


  G/B                              Am
e|----------------3---------------|----------------0---------------|
B|------------0-------0-----------|------------1-------1-----------|
G|--------0---------------0-------|--------2---------------2-------|
D|----0-----------------------0---|----2-----------------------2---|
A|2-------------------------------|0-------------------------------|
E|--------------------------------|--------------------------------|
          Ev'ry   lone________ly   hour 


  Dm                               E/B                
e|------------1---1---------------|----------------0---------------|
B|--------3-----------3-----------|------------0-------0-----------|
G|----2-------------------2-------|--------1---------------1-------|
D|0---------------------------0---|----2-----------------------2---|
A|--------------------------------|2-------------------------------|
E|--------------------------------|--------------------------------|
          Then the sin____ner             pulls the trigger and the 


  Am                               Am              Am/G     
e|----------------0---------------|--------------------------------|
B|------------1-------1-----------|----1---------------1-----------|
G|--------2---------------2-------|--------2---------------2-------|
D|----2-----------------------2---|------------2---------------2---|
A|0-------------------------------|0-------------------------------|
E|--------------------------------|----------------3---------------|
  world  turns sour                                Whisper on the


  Fmaj7                            Em               
e|------------0---0---------------|----------------0---------------|
B|--------1-----------1-----------|--------------------0-----------|
G|----2-------------------2-------|------------0-----------0-------|
D|3---------------------------3---|--------2-------------------0---|
A|--------------------------------|----2---------------------------|
E|--------------------------------|0-------------------------------|
  wind______            Locked in  si______lence 


  Dm                               C                
e|------------1---1---------------|----------------0---------------|
B|--------3-----------3-----------|------------1-------1-----------|
G|----2-------------------2-------|--------0---------------0-------|
D|0---------------------------0---|----2-----------------------2---|
A|--------------------------------|3-------------------------------|
E|--------------------------------|--------------------------------|
      Profession      of_______    vi__o___lence   Whisper on the


  Fmaj7                            Em               
e|------------0---0---------------|----------------0---------------|
B|--------1-----------1-----------|--------------------0-----------|
G|----2-------------------2-------|------------0-----------0-------|
D|3---------------------------3---|--------2-------------------0---|
A|--------------------------------|----2---------------------------|
E|--------------------------------|0-------------------------------|
  wind______            Locked in  si______lence 


  Am                               Am      
e|----------------0---------------|0-------------------------------|
B|------------1-------1-----------|1-------------------------------|
G|--------2---------------2-------|2-------------------------------|
D|----2-----------------------2---|2-------------------------------|
A|0-------------------------------|0-------------------------------|
E|--------------------------------|--------------------------------|
      Profession      of_______    violence


Fmaj7                Em
  Try to pick up the pieces 

G/B           Am
  Maybe move away
  
Dm   
  But the lifer 

E/B              Am       Am/G
  Was only yesterday 

Fmaj7               Em
  Down the halls of justice 

G/B                Am
  The echoes never fade 

Dm              
  Notches on my gun 

E/B               Am     
  Another debt is paid

Am/G           Fmaj7
Whisper on the wind 

          Em
Locked in silence 

Dm              C
  Profession of violence 

               Fmaj7
Whisper on the wind 

          Em
Locked in silence 

Am              Am
  Profession of violence
Composición de Paul Chapman / Phil Mogg
1 vistas
    • ½ Tono
    • A
    • Bb
    • B
    • C
    • Db
    • D
    • Eb
    • E
    • F
    • F#
    • G
    • Ab
  • Agregar a la lista

    0 comentarios

    Ver todos los comentarios

    ¿Lograste tocar?

    0 Tocaron 0 Aún no

    ¡Graba un video tocando Profession Of Violence y envíanoslo!

    00:00 / 00:00
    Outros vídeos desta música
    Repetir Calidad Automático
    Outros vídeos desta música
    00:00 / 00:00
    Automático
    OK