Cifra Club

Rock Bottom

UFO

Tablatura: Principal (guitarra)
Tom: E
Rock Bottom - UFO
Phenomenon(Chrysalis)
1974
Produced By Leo Lyons

Tuning Is 1/4 Step Up

  Main Riff (Distorted Electric Guitar)
E|-------------------------------------------------------------------||
B|-------------------------------------------------------------------||
G|-------------------------------------------------------------------||
D|---7--5-------5-------------------7---5-------5---------------5~~~-||
A|----------6-7---------5h7p5---------------6-7---------5h7p5--------||
E|-0--0--0-------0-6-7-------7-0-0---0---0-------0-6-7-------7-------||

 Pre-Chorus                 Chorus
E|-------------------------||-------------------------------------------||
B|-------------------------||-------------------------------------------||
G|-------------------------||----7-7/9---7-7/9---7-7/9-----------7-9----||
D|--7--5------5------------||----7-7/9---7-7/9---7-7/9-xx-10-9-7-7-9----||
A|--------6-7--------5-6-7-||----5-5/7---5-5/7---5-5/7-xx-10-9-7-5-7-x4-||
E|0--0--0------0-6-7-------||-0-0-----0-0-----0-0------xx--8-7-5--------||

  Main Riff (Distorted Electric Guitar)
E|-------------------------------------------------------------------||
B|-------------------------------------------------------------------||
G|-------------------------------------------------------------------||
D|---7--5-------5-------------------7---5-------5---------------5~~~-||
A|----------6-7---------5h7p5---------------6-7---------5h7p5--------||
E|-0--0--0-------0-6-7-------7-0-0---0---0-------0-6-7-------7-------||

 Pre-Chorus                 Chorus
E|-------------------------||-------------------------------------------||
B|-------------------------||-------------------------------------------||
G|-------------------------||----7-7/9---7-7/9---7-7/9-----------7-9----||
D|--7--5------5------------||----7-7/9---7-7/9---7-7/9-xx-10-9-7-7-9----||
A|--------6-7--------5-6-7-||----5-5/7---5-5/7---5-5/7-xx-10-9-7-5-7-x4-||
E|0--0--0------0-6-7-------||-0-0-----0-0-----0-0------xx--8-7-5--------||

  Main Riff (Distorted Electric Guitar)
E|-------------------------------------------------------------------||
B|-------------------------------------------------------------------||
G|-------------------------------------------------------------------||
D|---7--5-------5-------------------7---5-------5---------------5~~~-||
A|----------6-7---------5h7p5---------------6-7---------5h7p5--------||
E|-0--0--0-------0-6-7-------7-0-0---0---0-------0-6-7-------7-------||


  Pre-Bridge                 Bridge
E|-------------------------||----------------------------------------||
B|-------------------------||----------------------------------------||
G|-------------------------||5-5-xx-4-4-9-9-12--12-12\--5-5-xx-4-4-9-||
D|--7--5------5------------||5-5-xx-4-4-9-9-12--12-12\--5-5-xx-4-4-9-||
A|--------6-7--------5-6-7-||3-3-xx-2-2-7-7-10--10-10\--3-3-xx-2-2-7-||
E|0--0--0------0-6-7-------||----------------------------------------||


  Bridge Fill I
E|------------------14b(15)-12--------------------||
B|12-15-12-15b(17)~~----------15-12---------------||
G|---------------------------------14-14b(16)~~~~~||
D|------------------------------------------------||
A|------------------------------------------------||
E|------------------------------------------------||


  Bridge Fill II
E|-------------------------------------------------------------------|
B|-------12-15p(12)-------12-15p(12)---------------------------------|
G|14b(16)----------14b(16)----------14b(16)r(14)p(12)14-12--------12-|
D|--------------------------------------------------------14-12-14---|
A|-------------------------------------------------------------------|
E|-------------------------------------------------------------------|


E|--------------------------------------||
B|--------------------------------------||
G|14-14b(16)r(14)p(12)14-12-14b(16)~~~~~||
D|--------------------------------------||
A|--------------------------------------||
E|--------------------------------------||


  Solo
E|----------------------------------------------------------------------|
B|------------------------------9~~\-7~~\-6~~\-4~~2-1-2--------------2-2|
G|-----------------------------------------------------5-4-2--2-5-4-5-5-|
D|--------------------7/9------------------------------------5----------|
A|7~~~~7-7/9~~~~10~~~~---9~~~~\-----------------------------------------|
E|----------------------------------------------------------------------|

E|--------2/5-2~2/3-3/5-5/7~~--12-15-12----------------------------------|
B|-----3/5-------------------15--------15--------------------------------|
G|4-2-4----------------------------------14-12---------------------------|
D|--------------------------------------------14-12-11-11/12~~9-11/12-11\|
A|-----------------------------------------------------------------------|
E|-----------------------------------------------------------------------|

E|-----------------------------------------------------------------------|
B|-----------------------------------------------------------------------|
G|----------6-7-9-11-12-11-11/12~~11\9-9/11~~9\7-7/9~~7\6-6/7~~6\2-2/4~~~|
D|9-7-7/9~~9-------------------------------------------------------------|
A|-----------------------------------------------------------------------|
E|-----------------------------------------------------------------------|

E|------------------------------------------------------------------------|
B|------------------------------------------------------------------------|
G|4-6-7-9-11-12-11-11/12~~11\9-9/11~~9\7-7/9~~7\6-6/7~~6\2-2/4~~~---------|
D|------------------------------------------------------------------------|
A|---------------------------------------------------------------------7-9|
E|---------------------------------------------------------------7-9-10---|

E|------------------------------------------------------------------------|
B|------------------------------------------------------------------------|
G|---11b(12)~~11-9-7~~7-9-9b(10)r(9)(10)7-------------11b(12)~~11-9-7~~7-9|
D|7-9------------------------------------9--------------------------------|
A|----------------------------------------10~~7-9-10~~--------------------|
E|------------------------------------------------------------------------|

E|----------------------------|
B|----------------------------|
G|-9b(10)r(9)(10)~7-----------|
D|-----------------9----------|
A|------------------7~~7-9----|
E|------------------------7~~~|

Soloist
E|----------------------------------------------------------|
B|----------------------------------------------------------|
G|----------------------------------------------------------|
D|----------------------7-7-7-7-7-7-7----7---7--------------|
A|-----------7-10-9-10----------------10---9---10-10--------|
E|-10-9-10--------------------------------------------------|

E|----------------------------------------------------------|
B|---------------------------------8-8-7-7-8-8-10-10-12-12--|
G|--------------7---6---7--7-9-9-9--------------------------|
D|-7-7-7-7-7-9----7---7-------------------------------------|
A|----------------------------------------------------------|
E|----------------------------------------------------------|

E|-------14-15-15p14-15p14-15p14-17p14-15p14-17p14-15p14----|
B|-13b14----------------------------------------------------|
G|----------------------------------------------------------|
D|----------------------------------------------------------|
A|----------------------------------------------------------|
E|----------------------------------------------------------|

E|-17p14-15p14-17p14-15p14-17-17-17-17-14-17p14----17p14----|
B|----------------------------------------------15-------15-|
G|----------------------------------------------------------|
D|----------------------------------------------------------|
A|----------------------------------------------------------|
E|----------------------------------------------------------|

E|-17p14----17p14----17p14-14-15-15-14-15p14p12-14-12-14p12-|
B|-------15-------15----------------------------------------|
G|----------------------------------------------------------|
D|----------------------------------------------------------|
A|----------------------------------------------------------|
E|----------------------------------------------------------|

E|----12----------------------------------------------------|
B|-15----15-15-15-12-15-12-15-15-15-12-15-12----------------|
G|-------------------------------------------14-14-12-14-12-|
D|----------------------------------------------------------|
A|----------------------------------------------------------|
E|----------------------------------------------------------|

E|-----------------------------12-12----------12-12---------|
B|--------------------------12-------------12-------15-15-7-|
G|-14-14-14-12----12--14-14----------14-14------------------|
D|-------------14-------------------------------------------|
A|----------------------------------------------------------|
E|----------------------------------------------------------|

E|-12-12--------15p12-------12-------12------------12---12--|
B|-------15-15--------15-15----15-15----15-15---------------|
G|----------------------------------------------------------|
D|----------------------------------------------------------|
A|----------------------------------------------------------|
E|----------------------------------------------------------|

E|-15p12----12----------------------------------------------|
B|-------15----------12-15p12----12----12-------------------|
G|-------------14-14----------14----14----14-12-14-12----12-|
D|----------------------------------------------------14----|
A|----------------------------------------------------------|
E|----------------------------------------------------------|

E|----------------------------------------------------------|
B|----------------------------------------------------------|
G|----------------------------------------------------------|
D|----12-14-12----12----------7-----------------------------|
A|-14----------14----14-13-12---10---12-10------------------|
E|-----------------------------------------12-10--12-10-12--|

E|------------------------------------------------------------|
B|------------------------------------------------------------|
G|---------------------------------------------------12----14-|
D|-------------------------------12----12--14-12-14-----14----|
A|-10----10--12-10-12--14-12-14-----14------------------------|
E|----12------------------------------------------------------|

E|------------------------------12----12-------12-12-------12-|
B|-----------12----12-14-12-14-----15----15-15-------15-15----|
G|-14-12-14-----14--------------------------------------------|
D|------------------------------------------------------------|
A|------------------------------------------------------------|
E|------------------------------------------------------------|

E|-------12----------12-14-15-14-15-15--15--14-15--17-17-17p15-|
B|-15-15----15-15-15-------------------------------------------|
G|-------------------------------------------------------------|
D|-------------------------------------------------------------|
A|-------------------------------------------------------------|
E|-------------------------------------------------------------|

E|-17-17-17-17p15-17-17-17-17p15-17-17-17-17p15-17-17-17-17p15-|
B|-------------------------------------------------------------|
G|-------------------------------------------------------------|
D|-------------------------------------------------------------|
A|-------------------------------------------------------------|
E|-------------------------------------------------------------|

E|-17-17-17-17p15-17-15--17-15-----X-X--22-22-22-22-22-22-19---|
B|-----------------------------17------------------------------|
G|-------------------------------------------------------------|
D|-------------------------------------------------------------|
A|-------------------------------------------------------------|
E|-------------------------------------------------------------|

E|-22-22-19-22-22-19-22-22-19-22-19--17-17-17-15-17-15-14-15---|
B|-------------------------------------------------------------|
G|-------------------------------------------------------------|
D|-------------------------------------------------------------|
A|-------------------------------------------------------------|
E|-------------------------------------------------------------|

E|-17p15p14-15-14----------------------------------------------|
B|----------------17-15-17~~~~~-15-17-17-17-17-15-17-15--------|
G|------------------------------------------------------16-14--|
D|-------------------------------------------------------------|
A|-------------------------------------------------------------|
E|-------------------------------------------------------------|

E|-------------------------------------------------------------|
B|-------------------------------------------------------------|
G|-12-14-12h14p12-11-12-11----------12-14-14-14-12--14-12-14---|
D|-------------------------12-12-14----------------------------|
A|-------------------------------------------------------------|
E|-------------------------------------------------------------|

E|-------------------------------------------------------------|
B|----15------------------------12-15-12-------12-15-12--------|
G|-14----14-14-12--14-12--14-14----------14-14----------14-14--|
D|-------------------------------------------------------------|
A|-------------------------------------------------------------|
E|-------------------------------------------------------------|

E|-------------------------------------------------------------|
B|-12-15-12-------12-15-------12-15-12-------12-15-12-------12-|
G|----------14-14-------14-14----------14-14----------14-14----|
D|-------------------------------------------------------------|
A|-------------------------------------------------------------|
E|-------------------------------------------------------------|

E|-------------12-------------12-------------12-------------12-|
B|-15-12----------15-12----------15-12----------15-12----------|
G|-------14-14----------14-14----------14-14----------14-14----|
D|-------------------------------------------------------------|
A|-------------------------------------------------------------|
E|-------------------------------------------------------------|

E|---------------------------14-12-14-15--14-12-----12---------|
B|-15-12-15-15-12h14----------------------------15-----15--15--|
G|-------------------------------------------------------------|
D|-------------------------------------------------------------|
A|-------------------------------------------------------------|
E|-------------------------------------------------------------|

Rhythm (played in conjunction as the notes on lead)
E|-----------------------------------------------------------------|
B|-----------------------------------------------------------------|
G|---------------------5-5-5--5--5--5-----4--4--4-----------4--4---|
D|---------------------5-5-5--5--5--5-----4--4--4-----------4--4---|
A|---------------------3-3-3--3--3--3-----2--2--2-----------2--2---|
E|-----------------------------------------------------------------|

Soloist
E|-12-14-15-12h14-15-12h14-15-12h14h15-12h14h15--15p14p12-15p14p12-|
B|-----------------------------------------------------------------|
G|-----------------------------------------------------------------|
D|-----------------------------------------------------------------|
A|-----------------------------------------------------------------|
E|-----------------------------------------------------------------|

Rhythm
E|-----------------------------------------------------------------|
G|-----------------------------------------------------------------|
G|--4-----9--9----9---------9-----9-----9--------12----12----------|
D|--4-----9--9----9---------9-----9-----9--------12----12----------|
A|--2-----7--7----7---------7-----7-----7--------10----10----------|
E|-----------------------------------------------------------------|

Soloist
E|-15p14p12-15p14p12--12-15-15-15----15-12----------12------------------|
B|-----------------------------------------15-15-------15--15-15-12-15--|
G|----------------------------------------------------------------------|
D|----------------------------------------------------------------------|
A|----------------------------------------------------------------------|
E|----------------------------------------------------------------------|

Rhythm
E|---------------------------------------------------------------------|
B|---------------------------------------------------------------------|
G|-12----12----12-----12--------5--5--5-----5-----5--5------4-----4--4-|
D|-12----12----12-----12--------5--5--5-----5-----5--5------4-----4--4-|
A|-10----10----10-----10--------3--3--3-----3-----3--3------2-----2--2-|
E|---------------------------------------------------------------------|
Soloist
E|--------------12----------------------------|
B|-12-------12------12-15b(17)~~~~~~~~~~~~~~--|
G|----14-14-----------------------------------|
D|--------------------------------------------|
A|--------------------------------------------|
E|--------------------------------------------|

Rhythm
E|---------------------------------------------|
B|---------------------------------------------|
G|--------4--4---4---4---9---------------------|
D|--------4--4---4---4---9---------------------|
A|--------2--2---2---2---7---------------------|
E|-------------------------------------------0-|

  Main Riff (Distorted Electric Guitar)
E|-------------------------------------------------------------------||
B|-------------------------------------------------------------------||
G|-------------------------------------------------------------------||
D|---7--5-------5-------------------7---5-------5---------------5~~~-||
A|----------6-7---------5h7p5---------------6-7---------5h7p5--------||
E|-0--0--0-------0-6-7-------7-0-0---0---0-------0-6-7-------7-------||


  Pre-Chorus                 Chorus
E|-------------------------||-------------------------------------------||
B|-------------------------||-------------------------------------------||
G|-------------------------||----7-7/9---7-7/9---7-7/9-----------7-9----||
D|--7--5------5------------||----7-7/9---7-7/9---7-7/9-xx-10-9-7-7-9----||
A|--------6-7--------5-6-7-||----5-5/7---5-5/7---5-5/7-xx-10-9-7-5-7-x4-||
E|0--0--0------0-6-7-------||-0-0-----0-0-----0-0------xx--8-7-5--------||


  Ending
E|----------------------------------------------------------------------|
B|----------------------------------------------------------------------|
G|9-9-9----7-7-7----9-9-9-----------7--9-9-9----7-7-7----9-9-9--7-7-7---|
D|9-9-9----7-7-7----9-9-9----10-9-7-7--9-9-9----7-7-7----9-9-9--7-7-7-10|
A|7-7-7----5-5-5----7-7-7----10-9-7-5--7-7-7----5-5-5----7-7-7--5-5-5-10|
E|----------------------------8-7-5------------------------------------8|

E|-------------------------------------||
B|-------------------------------------||
G|--------9///////////////////////--9\-||
D|-10-9-9-9///////////////////////--9\-||
A|-10-9-9-7///////////////////////--7\-||
E|--8-7-7------------------------------||

Tabbed By Rocker102 - Second Half of Solo Tabbed By SammyPage
reproducciones 377
Acordes para:
    Composição: Michael Schenker / Phil Mogg Colaboración y revision:
    • Victor Cintra

    0 comentarios

    mostrar más comentarios

    ¿Conseguiste tocar?

    1 tocaron 0 aún no

    ¡Graba un vídeo tocando Rock Bottom y envianoslo!

    00:00 / 00:00
    outros vídeos desta música
    repetir qualidade Automático
    Outros vídeos desta música
    00:00 / 00:00
    Automático
    OK