Cifra Club

This Kids

UFO

Tablatura: Principal (guitarra)
Tom: A
(intro)

E|---------------------------------------------|
B|-9-9-9-9-----------------9-9-9---------------|
G|-9-9-9-9-----------------9-9-9---------------|
D|-9-9-9-9-----------------9-9-9---------------|
A|-7-7-7-7-----5-5---------7-7-7-----5-7---5---|
E|---------5-7-----7-5-3---------0-5---5---3---|

E|---------------------------------------------|
B|-9-9-9-9-----------------9-9-9---------------|
G|-9-9-9-9-----------------9-9-9---------------|
D|-9-9-9-9-----------------9-9-9-------x-x-x---|
A|-7-7-7-7-----5-5---------7-7-7-----5-x-x-x---|
E|---------5-7-----7-5-3---------0-5---x-x-x---|

E|---------------------------------------------|
B|-9-9-9-9-----------------9-9-9---------------|
G|-9-9-9-9-----------------9-9-9---------------|
D|-9-9-9-9-----------------9-9-9---------------|
A|-7-7-7-7-----5-5---------7-7-7-----5-7---5---|
E|---------5-7-----7-5-3---------0-5---5---3---|

E|-------------------------------------------------|
B|-9-9-9-9-----------------9-9-9-------------------|
G|-9-9-9-9-----------------9-9-9-------------------|
D|-9-9-9-9-----------------9-9-9-------x-x-x-x-x-x-|
A|-7-7-7-7-----5-5---------7-7-7-----5-x-x-x-x-x-x-|
E|---------5-7-----7-5-3---------0-5---x-x-x-x-x-x-|

(verse)
E|-----------------------------------|
B|-----------------------------------|
G|-----------------------------------|
D|-----------------------------------|
A|-7---5---5p0---7p5---7---5---5/0---|
E|-----------------------------------|
(play this four times)

(back to the intro riff)
E|---------------------------------------------|
B|-9-9-9-9-----------------9-9-9---------------|
G|-9-9-9-9-----------------9-9-9---------------|
D|-9-9-9-9-----------------9-9-9---------------|
A|-7-7-7-7-----5-5---------7-7-7-----5-7---5---|
E|---------5-7-----7-5-3---------0-5---5---3---|

E|---------------------------------------------|
B|-9-9-9-9-----------------9-9-9---------------|
G|-9-9-9-9-----------------9-9-9---------------|
D|-9-9-9-9-----------------9-9-9-------x-x-x---|
A|-7-7-7-7-----5-5---------7-7-7-----5-x-x-x---|
E|---------5-7-----7-5-3---------0-5---x-x-x---|

E|---------------------------------------------|
B|-9-9-9-9-----------------9-9-9---------------|
G|-9-9-9-9-----------------9-9-9---------------|
D|-9-9-9-9-----------------9-9-9---------------|
A|-7-7-7-7-----5-5---------7-7-7-----5-7---5---|
E|---------5-7-----7-5-3---------0-5---5---3---|

E|-------------------------------------------------|
B|-9-9-9-9-----------------9-9-9-------------------|
G|-9-9-9-9-----------------9-9-9-------------------|
D|-9-9-9-9-----------------9-9-9-------x-x-x-x-x-x-|
A|-7-7-7-7-----5-5---------7-7-7-----5-x-x-x-x-x-x-|
E|---------5-7-----7-5-3---------0-5---x-x-x-x-x-x-|

(2nd verse - same as the first))
E|-----------------------------------|
B|-----------------------------------|
G|-----------------------------------|
D|-----------------------------------|
A|-7---5---5p0---7p5---7---5---5/0---|
E|-----------------------------------|
(play this four times)

(chorus)
E|-------------------------------------------------|
B|-------------------------------------------------|
G|------------------------------------------2------|
D|------------------------------------------2------|
A|---4--4---x---4--4--x---4--4--x---4--4--x-0------|
E|-0-2--2---x-0-2--2--x-0-2--2--x-0-2--2--x--------|
(play this four times)

(3rd verse - same thing again)
E|-----------------------------------|
B|-----------------------------------|
G|-----------------------------------|
D|-----------------------------------|
A|-7---5---5p0---7p5---7---5---5/0---|
E|-----------------------------------|
(play this four times)

(2nd chorus - same as the first)
E|-------------------------------------------------|
B|-------------------------------------------------|
G|------------------------------------------2------|
D|------------------------------------------2------|
A|---4--4---x---4--4--x---4--4--x---4--4--x-0------|
E|-0-2--2---x-0-2--2--x-0-2--2--x-0-2--2--x--------|
(play this four times)

(this is what is played behind the keyboard and guitar solos)
E|-----------------------------------------|
B|-----------------------------------------|
G|----------------2------------------------|
D|----------------2------------------------|
A|-4--4-4--4-4--4-0--4-4--4-4--4-4--4-2--2-|
E|-2--2-2--2-2--2----2-2--2-2--2-2--2-0--0-|
(just keep repeating this a bunch of times)

(the end of of the solo play this)
E|--------------------------------------------------|
B|--------------------------------------------------|
G|-4-4-4-4-4-4-4-4-4-4-4-4-2-2-2-2-2-2-2-2-2-2------|
D|-4-4-4-4-4-4-4-4-4-4-4-4-2-2-2-2-2-2-2-2-2-2------|
A|-2-2-2-2-2-2-2-2-2-2-2-2-0-0-0-0-0-0-0-0-0-0------|
E|--------------------------------------------------|

E|-----------------------------------------|
B|-----------------------------------------|
G|----------------2------------------------|
D|----------------2------------------------|
A|-4--4-4--4-4--4-0--4-4--4-4--4-4--4-2--2-|
E|-2--2-2--2-2--2----2-2--2-2--2-2--2-0--0-|

E|--------------------------------------------------|
B|--------------------------------------------------|
G|-4-4-4-4-4-4-4-4-4-4-4-4-2-2-2-2-2-2-2-2-2-2------|
D|-4-4-4-4-4-4-4-4-4-4-4-4-2-2-2-2-2-2-2-2-2-2------|
A|-2-2-2-2-2-2-2-2-2-2-2-2-0-0-0-0-0-0-0-0-0-0------|
E|--------------------------------------------------|

(little drum part then the outro - a little different than the chorus)
E|-------------------------------------------------|
B|-------------------------------------------------|
G|------------------------------------------2------|
D|------------------------------------------2------|
A|---4--4---x---4--4--x---4--4--x---4--4--x-0------|
E|-0-2--2---x-0-2--2--x-0-2--2--x-0-2--2--x--------|

E|----------------------------------------------------------------|
B|----------------------------------------------------------------|
G|----------------------------------------------------------------|
D|------------7---------7---------7---------5--5---4---0---4------|
A|---4--4---x-7-4--4--x-7-4--4--x-7-4--4--x-5--5---4---0---4------|
E|-0-2--2---x-5-2--2--x-5-2--2--x-5-2--2--x-3--3---2-------2------|
reproducciones 26
Acordes para:
    Composição: Michael Schenker / Phil Mogg Colaboración y revision:
    • Élison Duarte

    0 comentarios

    mostrar más comentarios

    ¿Conseguiste tocar?

    0 tocaron 0 aún no

    ¡Graba un vídeo tocando This Kids y envianoslo!

    00:00 / 00:00
    outros vídeos desta música
    repetir qualidade Automático
    Outros vídeos desta música
    00:00 / 00:00
    Automático
    OK