Cifra Club

Dont Go

Ugly Kid Joe

Tablatura: Principal (guitarra)
Tom: D
-|----------------------------------|
D|----------------|-7-|---------------|-7-|-9-9-9999-9-7-7-7777-7------------|
A|-7h9-9-7-9------|---|-7h9-9-7-9-----|---|-7-7-7777-7-5-5-5555-5-7-7-7777---|
E|-7---7-7-7------|---|-7---7-7-7-----|---|-----------------------5-5-5555---|

E|----------------|----------------------------------------------------------|
B|----------------|----------------------------------------------------------|
G|----------------|----------------------------------------------------------|
D|-----***P.M.***-|-7h9-9-7-9-x-x-777--7h9-9-7-9-x-x-7------------7h9-9-7-9--|
A|-7\5-2-2-2222-2-|-7---7-7-7-x-x-545--7---7-7-7-x-x-5-7-7\5/7\5--7---7-7-7--|
E|-5\3-0-0-0000-0-|------------------------------------5-5\3/5\3-------------|

E|--------------------------------|----------------|---|---------------|----|
B|--------------------------------|----------------|---|---------------|----|
G|--------------------------------|.-----------(x4)|-9-|-----------(x4)|-9--|
D|-x-x-777--7h9-9-7-9-x-x-7-------|.---------------|-7-|---------------|-7--|
A|-x-x-545--7---7-7-7-x-x-5-7-8-9-|-7h9-9-7-9------|---|-7h9-9-7-9-----|----|
E|--------------------------5-6-7-|-7---7-7-7------|---|-7---7-7-7-----|----|
                                   (******repeat this part x2**************)

E|----------------------------------------------------|----------------------|
B|----------------------------------------------------|----------------------|
G|------------------------------------------------(x4)|----------------------|
D|-9-9-9999-9-7-7-7777-7------------------------------|-7h9-xxxxx-7-9-7-9h7--|
A|-7-7-7777-7-5-5-5555-5-7-7-7777-7\5-2-2-2222-2------|-7---xxxxx-7-7-7-7----|
E|-----------------------5-5-5555-5\3-0-0-0000-0------|--------------------7-|
                                                      (*repeat this part x4)

| /  slide up
| \  slide down
| h  hammer-on
| p  pull-off
| ~  vibrato
| +  harmonic
| x  Mute note
reproducciones 23
Acordes para:

    0 comentarios

    mostrar más comentarios

    ¿Conseguiste tocar?

    0 tocaron 0 aún no

    ¡Graba un vídeo tocando Dont Go y envianoslo!

    00:00 / 00:00
    outros vídeos desta música
    repetir qualidade Automático
    Outros vídeos desta música
    00:00 / 00:00
    Automático
    OK