Cifra Club

Milkmans Son

Ugly Kid Joe

Tablatura: Principal (guitarra)
Tom: F
   (pm=palm mute)   The s e  are all th  e  riffs ,  sans  t h 
Eb:----------------|-------------------|(7)------(5)------(0)-|
Bb:----------------|--7----------------|(7)------(5)------(0)-|
Gb:----------------|----8--------------|(8)------(6)------(1)-|
Db:9------7--2-----|9-----9----7--2----|-9--------7--------2--|
Ab:9------7--2-----|9-------9--7--2----|-9--------7--------2--|
Eb:7------5--0-----|7----------5--0----|-7--------5--------0--|
                                         A rrpegi a te beh i n 

   e solo                                                         

Eb:----------------|| --------------------|-------------------- 3|
Bb:----------------|| --------------------|-------------------- ||
Gb:----------------||*--------------------|--------------------*||
Db:----------------||*-------------6------|-------------6-8-8--*||
Ab:----------------|| --8-9-/8-\9--4-6-6-2|--8-9-/8-\9--4-6-6-- ||
Eb:----------------|| 0-6-7-/6-\7----4-4-0|0-6-7-/6-\7--------- ||
   d these            pm--                 pm--                   

                                                          

Eb:--------------------|----------------|----------------|
Bb:--------------------|----------------|----------------|
Gb:--------------------|----------------|----------------|
Db:--------------6-----|----------------|9-------7--2----|
Ab:---8-9-/8-\9--4-6-6-|2---------------|9-------7--2----|
Eb:-0-6-7-/6-\7----4-4-|0---------------|7-------5--0----|
    pm--                                                  
reproducciones 49
Acordes para:

    0 comentarios

    mostrar más comentarios

    ¿Conseguiste tocar?

    0 tocaron 0 aún no

    ¡Graba un vídeo tocando Milkmans Son y envianoslo!

    00:00 / 00:00
    outros vídeos desta música
    repetir qualidade Automático
    Outros vídeos desta música
    00:00 / 00:00
    Automático
    OK