Cifra Club

Meu Grande Amor

Ulisses e Moisés

Cifrado: Principal (guitarra y guitarra eléctrica)
tono: Eb
(intro) Eb Bb Cm Ab

(solo)
E|-----------------------------
B|----4-3-4--4-3-4-6--4-3-4----
G|--0-------0---------1-----0-1
D|-----------------------------
A|-----------------------------
E|-----------------------------

(intro junto do solo)

E|---------------------------------------------------------------
B|---------------------------------------------------------------
G|---------------------------------------------------------------
D|-5-5-3-5--3-5-0--0---------------5-5-3-5--3-5----6-6-5-6-------
A|-------------------3-5-3-5-------------------------------------
E|---------------------------------------------------------------

Eb Bb Cm Ab (intro)

Eb
Fechei meus olhos
Bb
Fechei meu corpo
Cm
E no passado
Ab
Eu te busquei
  Eb
Lembrei nosso amor
  Bb
Até que um outro alguém
  Cm
Me tirou você e me fez perder
     Ab
Meu precioso bem

D|---3--5--1--

Eb           Bb
Meu grande amor      D--3--5--1--
Eb            Ab
Meu grande amor      D--3--5--1--
          Bb     Eb
Meu lindo céu azul   D--3--5--1--

   Ab      Bb      Eb    Bb
Tente entender que eu   e você  D--3--5--1--
Cm       Ab      Bb   Cm
Quando juntos somos um
        Ab    Bb    Eb
Faz meu mundo mais azul

( Eb Bb Cm Ab )

         Eb
Não, eu nunca mais
   Bb
Eu vivi em paz
     Cm                         Ab
Eu tentei te esquecer, ser feliz
                  Eb
Mas foi tudo em vão
               Bb
Então eu vou te reconquistar
   Cm
Vou te roubar, te arrancar de onde está

Eb          Bb
Meu grande amor
Eb              Ab
Meu grande amor
         Bb     Eb
Meu lindo céu azul
  Ab         Bb     Eb  Bb
Tente entender que eu   e você
Cm     Ab       Bb   Cm
Quando juntos somos um
         Ab      Bb    Eb
Faz meu mundo mais azul

Eb  Cm  Eb  Cm  Bb
Lá, lá, lá...

Ab            Bb
Meu grande amor
Eb             Ab
Meu grande amor
          Bb     Eb
Meu lindo céu azul
  Ab       Bb       Eb  Bb
Tente entender que eu    e você
Cm   Ab               Bb        Eb  Bb
O universo aplaude o nosso amor
Cm      Ab       Bb
Quando juntos somos um
Cm         Ab     Bb     Eb
Faz meu mundo mais azul
00:00 / 00:00
Otros videos de esta canción
Repetir
Otros videos de esta canción
Composición de Augusto Cezar / Bruna Brunetti / Moisés Ordine
Colaboración y revisión:
  • Carlos Robson
36 vistas
    • ½ Tono
    • A
    • Bb
    • B
    • C
    • Db
    • D
    • Eb
    • E
    • F
    • F#
    • G
    • Ab
  • Agregar a la lista

    0 comentarios

    Ver todos los comentarios

    ¿Lograste tocar?

    0 Tocaron 0 Aún no

    ¡Graba un video tocando Meu Grande Amor y envíanoslo!

    00:00 / 00:00
    OK