Cifra Club

Meu Grande Amor

Ulisses e Moisés

Cifrado: Principal (guitarra y guitarra eléctrica)
tono: Eb
 Intro: Eb  Bb  Cm  Ab
E|-----------------------------
B|----4-3-4--4-3-4-6--4-3-4----
G|--0-------0---------1-----0-1
D|-----------------------------
A|-----------------------------
E|-----------------------------

E|---------------------------------------------------------------
B|---------------------------------------------------------------
G|---------------------------------------------------------------
D|-5-5-3-5--3-5-0--0---------------5-5-3-5--3-5----6-6-5-6-------
A|-------------------3-5-3-5-------------------------------------
E|---------------------------------------------------------------

Fechei meus olhos

Eb
Fechei meus olhos
Bb
Fechei meu corpo
Cm
E no passado
Ab
Eu te busquei
  Eb
Lembrei nosso amor
  Bb
Até que um outro alguém
  Cm
Me tirou você e me fez perder

Meu precioso bem

Ab          Bb
Meu grande amor
Eb
Meu grande amor
Ab        Bb     Eb
Meu lindo céu azul
   Ab      Bb      Eb    Bb
Tente entender que eu   e você
Cm       Ab      Bb   Cm
Quando juntos somos um
        Ab    Bb    Eb
Faz meu mundo mais azul

( Eb  Bb  Cm  Ab )

         Eb
Não, eu nunca mais
   Bb
Eu vivi em paz
     Cm                         Ab
Eu tentei te esquecer, ser feliz
                  Eb
Mas foi tudo em vão
               Bb
Então eu vou te reconquistar
   Cm
Vou te roubar, te arrancar de onde está

Ab          Bb
Meu grande amor
Eb
Meu grande amor
Ab        Bb     Eb
Meu lindo céu azul
  Ab         Bb     Eb  Bb
Tente entender que eu   e você
Cm     Ab       Bb   Cm
Quando juntos somos um
         Ab      Bb    Eb
Faz meu mundo mais azul

Ab ( Cm )  Ab ( Cm ) Ab   Bb
Lá,    lá,    lá...

Ab            Bb
Meu grande amor
Eb
Meu grande amor
Ab        Bb     Eb
Meu lindo céu azul
  Ab       Bb       Eb  Bb     Cm
Tente entender que eu    e você
  Ab               Bb        Eb  Bb    Cm
O universo aplaude o nosso amor
  Ab       Bb          Cm
Quando juntos somos um
      Ab     Bb        Eb
Faz meu mundo mais azul
00:00 / 00:00
Otros videos de esta canción
Repetir
Otros videos de esta canción
Composición de Augusto Cezar / Bruna Brunetti / Moisés Ordine
Colaboración y revisión:
  • João Mendes
  • Carlos Robson
  • Bruna Brunetti
69 vistas
    • ½ Tono
    • A
    • Bb
    • B
    • C
    • Db
    • D
    • Eb
    • E
    • F
    • F#
    • G
    • Ab
  • Agregar a la lista

    0 comentarios

    Ver todos los comentarios

    ¿Lograste tocar?

    1 Tocaron 0 Aún no

    ¡Graba un video tocando Meu Grande Amor y envíanoslo!

    00:00 / 00:00
    OK