Cifra Club

Me dá um olá

Ultraje a Rigor

Tablatura: Principal (guitarra)
Tom: A
[Intro]

E|-----------------------|
B|-----------------------|
G|-----------------------|
D|-----------------------|
A|-----7-7-9-7-7-9-2-----|
E|-----5-5-5-5-5-5-0-----|

(Riff)

E|----------------------------------------------------------------|
B|----------------------------------------------------------------|
G|----------------------------------------------------------------|
D|-------------------------7-7-9-7-7-9----------------------------|
A|-----7-7-9-7-7-9---------5-5-5-5-5-5---(2x)---7-7-9-7-7-9-2-----|
E|-----5-5-5-5-5-5---(4x)-----------------------5-5-5-5-5-5-0-----|

[Solo]

E|----------------------------------------------------------------|
B|----------------------------------------------------------------|
G|---------2------------------------------------------------------|
D|-----2-4---4-2-------2------------------------------------------|
A|---------------4-2-4---4--0-0-2-4-2-0/2/0--0-0-2-4--4-4-2-4-----|
E|----------------------------------------------------------------|
          A
Me dá um olá

Me manda um oi
           D
Onde 'cê está?
           A    E
Onde é que foi?

                A
Que eu estou no ar

Sem saber
          D
Como 'cê está
       A   E  
Cadê você?

          A 
'Cê não podia

Ter sumido assim
                   D   
'Cê sabe onde eu estou
         A   E
Liga pra mim

[Solo]

( A B C# )

D            Dm            
Quem sabe um dia desses
A     
Sua auto-estima baixa
D      Dm
Nossas agendas batem
B7              E
E a gente se encaixa
reproducciones 75
Acordes para:
    Composição: Roger Colaboración y revision:
    • Aleph Mantovani
    • Élison Duarte
    • Gabriel

    0 comentarios

    mostrar más comentarios

    ¿Conseguiste tocar?

    9 tocaron 0 aún no

    ¡Graba un vídeo tocando Me dá um olá y envianoslo!

    00:00 / 00:00
    outros vídeos desta música
    repetir qualidade Automático
    Outros vídeos desta música
    00:00 / 00:00
    Automático
    OK