Cifra Club

Mim quer tocar

Ultraje a Rigor

Tablatura: Principal (guitarra)
Tom: A#
                   Introdução tirada por VELHO (BANDA VM's)
   Cm                              Gm
e|---------3-3-------------3-3---------------------------------|
b|-----4-4-----4-4-----4-4-----4-4---------3-3-------------3---|
G|-5-5-------------5-5-------------0-0-3-3-----3-3-0-0-3-3-----|
D|-------------------------------------------------------------|
A|-------------------------------------------------------------|
E|-------------------------------------------------------------|

   Cm                              Gm
e|---------3-3-------------3-3-------------------------|
b|-----4-4-----4-4-----4-4-----4-4---------3-3---------|
G|-5-5-------------5-5-------------0-0-3-3-----3-3-0---|
D|-----------------------------------------------------|
A|-----------------------------------------------------|
E|-----------------------------------------------------|

Este solo acompanha a parte que ele canta dinheiro e no meio da música ele também entra!
e|--------------------------------------------|
b|---4-3-----------------4-4-3----------------|
G|-0-----5--0-5-5-3-0--0-------5--0-5-5-3-0---|
D|--------------------------------------------|
A|--------------------------------------------|
E|--------------------------------------------|

Dinheiro...Dinheiro...Dinheiro...Dinheiro 

Cm
Mim quer tocar
Bb                  Gm
Mim gosta ganhar dinheiro
Cm
Me want to play
Bb                  Gm
Me love to get the money

Cm
Mim é brasileiro
Gm
Mim gosta banana
Cm
Mas mim também quer votar
Gm
Mim também quer ser bacana

Cm
Mim quer tocar
Bb                Gm
Mim gosta ganhar dinheiro
Cm
Me want to play
Bb                  Gm
Me love to get the money

Cm
Mim gosta tanto tocar
Gm
Mim é batuqueiro
Cm
Mas mim precisa ganhar
Gm
Mim gosta ganhar dinheiro
reproducciones 203
Acordes para:
    Colaboración y revision:
    • Danilo Araújo
    • Thiago Barbosa

    0 comentarios

    mostrar más comentarios

    ¿Conseguiste tocar?

    29 tocaron 0 aún no

    ¡Graba un vídeo tocando Mim quer tocar y envianoslo!

    00:00 / 00:00
    outros vídeos desta música
    repetir qualidade Automático
    Outros vídeos desta música
    00:00 / 00:00
    Automático
    OK