Cifra Club

O Chiclete

Ultraje a Rigor

Tablatura: Principal (guitarra)
Tom: D
Intro:

Guitarra 1:
E|-----------|-----------|-----------|-----------|
B|-----------|-----------|-----------|-----------|
G|-----------|-----------|-----------|-----------|
D|----4--7---|-5--4------|-----------|-----------|
A|--5--------|-------7---|----4---7--|----4---7--|
E|-----------|-----------|--5--------|--5--------|

Baixo:
G|-----------|-----------|-----------|-----------|
D|----4--7---|-----------|-----------|-----------|
A|--5--------|----2---5--|----4---7--|----4---7--|
E|-----------|--3--------|--5--------|--5--------|


Guitarra 1:
E|-----------|-----------|-----------|-----------|
B|-----------|-----------|-----------|-----------|
G|-----------|-----------|-----------|-----------|
D|----4--7---|-5--4------|-----------|-----------|
A|--5--------|-------7---|----4---7--|----4---7--|
E|-----------|-----------|--5--------|--5--------|
                                    
Guitarra 2:
     D           G            A
E|--2--------|--3--------|-----------|-----------|
B|--3--------|--3--------|---2-------|-----------|
G|--2--------|-----------|---2-------|-----------|
D|-----------|-----------|---2-------|-----------|
A|-----------|--2--------|-----------|-----------|
E|-----------|--3--------|-----------|-----------|

Durante a Música:

Guitarra 1:
E|-----------|-----------|-----------|-----------|
B|-----------|-----------|-----------|-----------|
G|-----------|-----------|-----------|-----------|
D|----4--7---|-----------|-----------|-----------|
A|--5--------|----2--4---|----4---7--|----4---7--|
E|-----------|-3---------|--5--------|--5--------|
                                    
Guitarra 2:
     D           G             A
E|-----------|-----------|-----------|-----------|
B|-----------|-----------|-----------|-----------|
G|--7--------|-----------|-----------|-----------|
D|--7--------|--5--------|---7-------|-----------|
A|--5--------|--5--------|---7-------|-----------|
E|-----------|--3--------|---5-------|-----------|


Música:

D                  G                  A
  O chiclete que você mastiga não é igual ao meu. \
D                  G                  A            - 2x
  O chiclete que você mastiga não é igual ao meu. /

F#m        G       A
  Enche a boca de ar
F#m       G            A
  Depois dá um "assoprão"
F#m     G              A
  Faz bem pro "seu" Mané do bar
F#m         G             A
  Mas pra sua dentadura não

D                  G                  A
  O chiclete que você mastiga não é igual ao meu. \
D                  G                  A            - 2x
  O chiclete que você mastiga não é igual ao meu. /

     G                 D
  O meu chiclete faz "plockê"
     A                D
  O seu chiclete faz bum
     G                 D
  O meu chiclete faz "plockê"
     A                D
  O seu chiclete faz bum

              A  *Link 1
  Bum bum bundão
              D  *Link 2
  Bum bum bundão
              A
  Bum bum bundão
              D
  Bum bum bundão

D                  G                  A
  O chiclete que você mastiga não é igual ao meu. \
D                  G                  A            - 2x
  O chiclete que você mastiga não é igual ao meu. /

F#m        G       A
  Enche a boca de ar
F#m       G            A
  Depois dá um "assoprão"
F#m     G              A
  Faz bem pro "seu" Mané do bar
F#m         G             A
  Mas pra sua dentadura não

D                  G                  A
  O chiclete que você mastiga não é igual ao meu. \
D                  G                  A            - 2x
  O chiclete que você mastiga não é igual ao meu. /

     G                 D
  O meu chiclete faz "plockê"
     A                D
  O seu chiclete faz bum
     G                 D
  O meu chiclete faz "plockê"
     A                D
  O seu chiclete faz bum

              A
  Bum bum bundão
              D
  Bum bum bundão
              A
  Bum bum bundão
              D
  Bum bum bundão

  Na bateria, Leospa!

              A
  Bum bum bundão
              D
  Bum bum bundão
              A
  Bum bum bundão
              D
  Bum bum bundão

  Na guitarra, Serginho! 

              A
  Bum bum bundão
              D
  Bum bum bundão
              A
  Bum bum bundão
              D
  Bum bum bundão

  No baixo, Mauricio! 

              A
  Bum bum bundão
              D
  Bum bum bundão
              A
  Bum bum bundão
              D
  Bum bum bundão

  Na guitarra, Roger! 

              A
  Bum bum bundão
              D
  Bum bum bundão
              A
  Bum bum bundão
              D
  Bum bum bundão

  "Esse é o Ultraje A Rigor!" 

              A
  Bum bum bundão
              D
  Bum bum bundão
              A
  Bum bum bundão
              D
  Bum bum bundão

Link 1
E|-----------------------------------------------|
B|-----------------------------------------------|
G|-----------------------------------------------|
D|--6p7-7-7-7--6p7-7-7-7--6p7-7-7-7--6p7-7-7-7---|
A|-----------------------------------------------|
E|-----------------------------------------------|
                                    
Link 2:
E|-----------------------------------------------|
B|-----------------------------------------------|
G|-----------------------------------------------|
D|-----------------------------------------------|
A|--4p5-5-5-5--4p5-5-5-5--4p5-5-5-5--4p5-5-5-5---|
E|-----------------------------------------------|
reproducciones 56
Acordes para:
    Composição: Edgard Scandurra Colaboración y revision:

    0 comentarios

    mostrar más comentarios

    ¿Conseguiste tocar?

    9 tocaron 0 aún no

    ¡Graba un vídeo tocando O Chiclete y envianoslo!

    00:00 / 00:00
    outros vídeos desta música
    repetir qualidade Automático
    Outros vídeos desta música
    00:00 / 00:00
    Automático
    OK