Cifra Club

Rebelde sem causa

Ultraje a Rigor

Tablatura: Principal (guitarra)
Tom: C
Violão 1:
       A5              F5             C5             E5
E|--------------------------------------------------------------|
B|--------------------------------------------------------------|
G|---------------------------------5-x-x-5-x-x-5--9-x-x-9-x-x-9-|
D|--7-x-x-7-x-x-7---3-x-x-3-x-x-3--5-x-x-5-x-x-5--9-x-x-9-x-x-9-|
A|--7-x-x-7-x-x-7---3-x-x-3-x-x-3--3-x-x-3-x-x-3--7-x-x-7-x-x-7-|
E|--5-x-x-5-x-x-5-0-1-x-x-1-x-x-1-------------------------------|

Riff 1:                                              C5            E5
E|----------------------------------------------------------------------|
B|---------10-10-5-5-6-6-----------6------------------------------------|
G|-----9-9---------------5-5-----5---------5------5------9------9-------|
D|-7-7-----------------------3-3-----------5------5------9------9—------|
A|-------------------------------------3-3-3--3-3-3--7-7-7--7-7-7-------|
E|----------------------------------------------------------------------|

Am               F
Meus dois pais me tratam muito bem
C                     E
(O que é que você tem que não fala com ninguém?)
Am                  F
Meus dois pais me dão muito carinho
C                   E
(Então porque você se sente sempre tão sozinho?)
Am                      F
Meus dois pais me compreendem totalmente
C                        E
(Como é que cê se sente , desabafa aqui com a gente!)
Am                       F
Meus dois pais me dão apoio moral
C                      E
(Não dá pra ser legal , só pode ficar mal !)

Am F
MAMA MAMA MAMA MAMA
C E
(PAPA PAPA PAPA PAPA)

D                F
Minha mãe até me deu essa guitarra
C                        G
Ela acha bom que o filho caia na farra
D                     F
E o meu carro foi meu pai que me deu

C                   G
Filho homem tem que ter um carro seu
D                       F
Fazem questão que eu só ande produzido
C                      G
Se orgulham de ver o filhinho tão bonito
D                         F
Me dão dinheiro prá eu gastar com a mulherada
C                   E
Eu realmente não preciso mais de nada

Solo:
        A5     F5     C5      E5     A5      F5      C5      E5

E|-5--12-15/8-7-7-7-8--7-5--12-15/8-7-7-7-8--7------------------|
B|--------------------------------------------------------------|
G|-2--9--12/5-4-4-4-5--4-2--9--12/5-4-4-4-5--4------------------| (2x)
D|--------------------------------------------------------------|
A|--------------------------------------------------------------|
E|--------------------------------------------------------------|

        A5     F5     C5      E5     A5      F5      C5      E5

E|-5--12-15-17-15--10-10-10-8-7-|-5--12-15-17-19-17-15-13-12/--------|
B|------------------------------|------------------------------------|
G|-2--9--12-14-12--7--7--7--5-4-|-2--9--12-14-16-14-12-10—9/---------|
D|------------------------------|------------------------------------|
A|------------------------------|------------------------------------|
E|------------------------------|------------------------------------|

Dm         Am
Meus pais não querem
C            G
Que eu fique legal
Dm           Am
Meus pais não querem
C            E
Que eu seja um cara normal

A5                 F5
Não vai dar , assim não vai dar
C5                      E5
Como é que eu vou crescer sem ter com quem me revoltar
A5                  F5
Não vai dar , assim não vai dar
C5                   E5
Pra eu amadurecer sem ter com quem me rebelar

Am F
MAMA MAMA MAMA MAMA
C E
(PAPA PAPA PAPA PAPA)

Riff 1:                                              C5            E5
E|----------------------------------------------------------------------|
B|---------10-10-5-5-6-6-----------6------------------------------------|
G|-----9-9---------------5-5-----5---------5------5------9------9-------|
D|-7-7-----------------------3-3-----------5------5------9------9—------|
A|-------------------------------------3-3-3--3-3-3--7-7-7--7-7-7-------|
E|----------------------------------------------------------------------|

( E5 D5 C5 B5 A5 )
reproducciones 347
Acordes para:

    0 comentarios

    mostrar más comentarios

    ¿Conseguiste tocar?

    62 tocaron 0 aún no

    ¡Graba un vídeo tocando Rebelde sem causa y envianoslo!

    00:00 / 00:00
    outros vídeos desta música
    repetir qualidade Automático
    Outros vídeos desta música
    00:00 / 00:00
    Automático
    OK