Cifra Club

Sexo

Ultraje a Rigor

Tablatura: Principal (guitarra)
Tom: D
ACORDES USADOS
    D   C   A   G   F    D#
e|--------------------------|
B|--------------------------|
G|--7---5-----------10---8--|
D|--7---5---7---5---10---8--|
A|--5---3---7---5---8----6--|
E|----------5---3-----------|


INTRODUCAO
e|---------------------------------------------|
B|---------------------------------------------|
G|------5-----7-X-7-X-7-5---5------------------|
D|--/7-----7--7-X-7-X-7-5-7-5-7--5-X-5-X-5--7--|
A|------------5-X-5---5-3-7-3-7--5-X-5-X-5--7--|
E|------------------------5---5--3---3-X-3--5--|

 Nem preciso dizer q a intro vale p a musica toda...

D  C  G  A

Hoje vai passar um filme na TV que eu já vi no cinema
Êpa!? Mutilaram o filme, cortaram uma cena
E só porque aparecia uma coisa que todo mundo conhece
E se não cohece ainda vai conhecer
E não tem nada de mais
Se a gente nasceu com uma vontade que nunca se satisfaz
Verdadeiro perigo na mente dos boçais
Corri pro quarto, acendi a luz,
olhei no espelho, o meu tava lá
Ainda bem que eu não tô na TV, senão iam ter que cortar!

(Ui!) Sexo! Como é que eu fico sem sexo!
Eu quero sexo! Me dá sexo!
Sexo! Como é que eu fico sem sexo!
Eu quero sexo!Vem cá sexo!

Bom, vá lá, vai ver que é pelas crianças
Mas quem essa besta pensa que é pra decidir?
Depois aprende por aí que nem eu aprendi
Tão distorcido que é uma sorte eu não ser pervertido
Voltei prá sala, vou ver o jornal
Quem sabe me deixam ver a situação geral
E é eleição, é inflação, corrupção e como tem ladrão
e assassino e terrorista e a guerra espacial!
Socorro!
Sexo! Como é que eu fico sem sexo!
Eu quero sexo! Senta Sexo! Solta Sexo!

(Solo I)
D    F
(Solo II)
D  C  A  C  A  G  A
(Final)  
D  C  B  A
D  C  B  A  D  A  D  C  D
reproducciones 101
Acordes para:
    Composição: Maurício / Roger Moreira Colaboración y revision:
    • Raphael Silva

    0 comentarios

    mostrar más comentarios

    ¿Conseguiste tocar?

    6 tocaron 0 aún no

    ¡Graba un vídeo tocando Sexo y envianoslo!

    00:00 / 00:00
    outros vídeos desta música
    repetir qualidade Automático
    Outros vídeos desta música
    00:00 / 00:00
    Automático
    OK