Cifra Club

Aprenda

All Stood Still

Ultravox

Tab de bajo: Principal
G|------00--------------|
D|----11--11-33-00-11---|
A|--33---------------33-|
E|----------------------|

G|------00--33-00-22---|
D|----11--11--------33-|
A|--33-----------------|
E|---------------------|
Compositor Billy Currie / Chris Cross / Midge Ure / Warren Cann
Colaboración y revision:
  • Élison Duarte
21 reproducciones

0 comentarios

Mostrar mais comentários

¿Conseguiste tocar?

0 Tocaron 0 Ainda não

Grave um vídeo tocando All Stood Still e mande pra gente!

00:00 / 00:00
outros vídeos desta música
repetir qualidade Automático
Outros vídeos desta música
00:00 / 00:00
Automático
OK