Cifra Club

Aquarela

Um Joystick, Um Violão

Cifrado: Principal (guitarra y guitarra eléctrica)
Selo Cifra Club: esta cifra foi revisada para atender aos critérios oficiais da nossa Equipe de Qualidade.
tono: G
Dedilhado:
       G          G/B          G4/C         Em11/D
E|0-2-3---------|------------|------------|--5---5--|
A|--------------|--2---------|--3---------|--5---5--|
D|--------------|------------|------------|--5---5--|
G|------0---0---|----0---0---|----0---0---|--5---5--|
B|-------3---3--|-----3---3--|-----3---3--|----5----|
E|--------3---3-|------3---3-|------3---3-|---------|

  G             G/B               G4/C              Em11/D
  Tava à toa na vida, bebendo com os irmãos martelo
  G           G/B                      G4/C             Em11/D
  E um deles falou que a princesa está em outro castelo
  G           G/B              G4/C           Em11/D
  Na copa cogumelo, eu bato na primeira curva
  G            G/B         G4/C          Em11/D
  Troco por GTA e atropelo uma prostituta.

Dedilhado 2º parte:
   Em             G6/D             C5          F9
E|---------------|-10------------|8----------|-------|
A|--7------------|---------------|-----------|-8-8-8-|
D|----9------9---|----9------9---|-----------|-7---7-|
G|------9-----9--|------7-----7--|--0----8---|-------|
B|--------8----8-|--------8----8-|----8---8--|-8---8-|
E|--------7----7-|--------7----7-|-----8---8-|-8---8-|

2º Parte:


  Em                 G6/D           C5                     F9
  Quero ir pra fase bônus, mas o que me falta é só um Anel. 
  G              G/B               G4/C              D4  D
  Pois com 7 esmeraldas e 50 anéis vou voar no céu.

Refrão:
  G        G/B           G4/C        Em11/D
  Apelando com Scorpion, Sub-Zero e Shang Tsung
  G            G/B             G4/C        Em11
  Contra o Vega, Dou Hadouken, Shoryuken e Sonic Boom
  G           F#m6            Em
  Quando jogo Zelda, fico só zuando
  A7                           D
  Pego a Ocarina e toco um Blues,
         
  só pra sacanear.
Otros videos de esta canción
    15 exhibiciones
      • ½ Tono
      • A
      • Bb
      • B
      • C
      • Db
      • D
      • Eb
      • E
      • F
      • F#
      • G
      • Ab
    • Agregar a la lista

    Afinação da cifra

    Afinador online

      Ops (: Contenido disponible solo en portugués.
      OK