Cifra Club

Mad Sina

Um Joystick, Um Violão

Cifrado: Principal (guitarra y guitarra eléctrica)
Selo Cifra Club: esta cifra foi revisada para atender aos critérios oficiais da nossa Equipe de Qualidade.
tono: A
A         D/A
Power-up, bônus e vida
A        E/G#
Coração, dá energia
F#m7          C#m7           D7M
Phoenix Down, me ressuscita jááá...
      Ebm7
Jogarei com Mario, com Luigi
  A
E até com o Toad
D/A
E com a princesa?
A
Ah, não vou
E/G#           F#m7
Só tem beleza e nada faz
C#m7             D7M    Ebm7
Não escolho ela maaaais

Pré-Refrão:
       Bm/E
Quando perco hp
Am/D     C#m7 Bm7 E5/C# F#m7
Eu uso um item e fico bom
      Bm/E
Isso é em todo rpg
Am/D            D9/E
Inclusive no Pokemooon

Refrão:
A
1up, estrela
D/A
pena, moeda e flor
A
Vida vou ganhar
E/G#
Ao pular no monitor
F#m7          C#m7
Mana e poder, eu ganho
            D7M
Quando tomo poção
           Ebm7
Para poder avacalhar com o chefão

(Refrão)


Final:

          A                    E                 F#m11
E|----------------------0--0-0-0-0-0-2-4---5--5---5-5--4-2--|
B|----------------0-2------0-0-0--------------2---2-2-------|
G|---2--------2-2-------------------------------------------|
D|------2-2-2-----------------------------------------------|
A|---0------------------2-----------------------------------|
E|-----------------------------------------2----2-----------|


          C#m7               D                A
E|---4----------------------0-2-2-2-0----------0-0-0--------|
B|---5--7-5--5-5---5----3-3-----2-2---3--2--2/3------3-2----|
G|---4-------4-4---4----2-2-----3-3------2--2---------------|
D|-----------6-6---6----0-0-----0-0------2--2---------------|
A|---4-----------4-----------------------0--0----0-0--------|
E|----------------------------------------------------------|

            B7            E          F#m7  G#m7    A
E|----------------2---0-------------------------------------|
B|------2-4-4-4---------------------------------------------|
G|----------2-2----------1---1--1-----2----4------2---------|
D|----------4-4-----------------------2----4------2---------|
A|--2-2---------2-----2---------------------------0---------|
E|--------------------0-0--0---0-0----2----4----------------|
Otros videos de esta canción
    72 exhibiciones
      • ½ Tono
      • A
      • Bb
      • B
      • C
      • Db
      • D
      • Eb
      • E
      • F
      • F#
      • G
      • Ab
    • Agregar a la lista

    Afinação da cifra

    Afinador online

      Ops (: Contenido disponible solo en portugués.
      OK