Cifra Club

Aprenda

Eva

Umberto Tozzi

Tablatura: Principal (guitarra)
tono: D
[Intro]  Em  D  C#m  Bm  A  G  F#m  Em  A4  A

      Em
E|-----------------------------10-12--|
B|--3/5-5----5/8-8----8/12-12---------|
G|------------------------------------|
D|------------------------------------|
A|------------------------------------|
E|------------------------------------|

        D                      D C#m Bm
E|--14~------10-12-14-15--14-12-10~---|
B|--------10--------------------------|
G|------------------------------------|
D|------------------------------------|
A|------------------------------------|
E|------------------------------------|

        Bm                     Bm A G
E|--14~------10-12-14-15--14-12-10~---|
B|--------10--------------------------|
G|------------------------------------|
D|------------------------------------|
A|------------------------------------|
E|------------------------------------|

          Em      A4 A
E|--3-5-3-----10-9---|
B|-------------------|
G|-------------------|
D|-------------------|
A|-------------------|
E|-------------------|

        G                               A
Prima o poi di follia scoppierá mezza umanitá
      G                        D     D4  D
Su di noi stormi di nucleari avvoltoi
             G                           A     Riff
Ma l'amore e dio e saremo io e te l'arca di noé
                G                           D
Questo amore crea e alla fine de questa odissea
             Em
Saró adamo e tu sarai

riff
E|-----------5h7p5-----9h10p9-------|
B|--5h7p7---------------------------|
G|----------------------------------|
D|----------------------------------|
A|----------------------------------|
E|----------------------------------|

            D                                     A/C#    B
Una piccola eva, eva il nostro amore é l'ultima astronave (eva)
                   A     G    Em              A4    A
Staremo stretti ma ci salverá come un uovo di eternitá
                D                              A/C#         Bm
Che si torna ad aprire eva abbracciami di mare dolce piovra (eva)
                 A      G    Em            A4     A
E ci respireremo finché vuoi con le ali di arcangelo 

                     Bm   A                                 G
Nello spazio di un attimo al di lá degli oceani anfibi come nuovi
        E4     G                      A            Riff
Marinai su new york, su beirut teschi di mammouth
       G                    D
Su maree di bambini ridotti a bambú
                 G                                  A      Riff
La mia vita é un flash per chi liscia i bottoni antiatomici
           G                          D
Ma l'amore crea e alla fine di questa odissea
             Em
Saró adamo e tu sarai 

riff
E|-----------5h7p5-----9h10p9-------|
B|--5h7p7---------------------------|
G|----------------------------------|
D|----------------------------------|
A|----------------------------------|
E|----------------------------------|

            D                                     A/C#    B
Una piccola eva, eva il nostro amore é l'ultima astronave (eva)
                   A     G    Em              A4    A
Staremo stretti ma ci salverá come un uovo di eternitá
                D                              A/C#         Bm
Che si torna ad aprire eva abbracciami di mare dolce piovra (eva)
                 A      G    Em            A4     A
E ci respireremo finché vuoi con le ali di arcangelo

                     Bm   A                                 G
Nello spazio di un attimo al di lá degli oceani anfibi come nuovi
        E4     G                      A
Marinai su new york, su beirut teschi di mammouth
       G                    D
Su maree di bambini ridotti a bambú
                 G                                  A
La mia vita é un flash per chi liscia i bottoni antiatomici
           G                          D
Ma l'amore crea e alla fine di questa odissea
             Em
Saró adamo e tu sarai 

Composição de Umberto Tozzi
Colaboración y revision:
  • Ruarinho Santos
11 reproducciones
    • ½ Tono
    • A
    • Bb
    • B
    • C
    • Db
    • D
    • Eb
    • E
    • F
    • F#
    • G
    • Ab
  • Adicionar à lista

    0 comentarios

    Ver todos os comentários

    ¿Conseguiste tocar?

    0 Tocaram 0 Ainda não

    Grave um vídeo tocando Eva e nos envie!

    00:00 / 00:00
    outros vídeos desta música
    repetir qualidade Automático
    Outros vídeos desta música
    00:00 / 00:00
    Automático
    OK