Cifra Club

A Moment Suspended In Time

Underoath

Tab de bajo: Principal
Já pensou em usar uma coleção de roupas do Cifra Club? Responda as perguntas abaixo e nos ajude nessa missão! →
Tuning: Drop D

music video for this song too in case you didn't know.


|---------------------------------|
|---------------------------------|
|-----------------1-1-1-1---------|
|-0-0-0-0-0-0-0-0---------5-5-5-5-|x4

|-----------|
|-----------|
|-1~--------|
|-----------|


|-------------------------------------|
|-------------------------------------|
|-------------------11111111-----0000-|
|-00000000-33333333----------5555-----|x4


|-----------------------------|
|-----------------------------|
|-1~--------------------------|
|---------------5~------------|


|----------------------------------------------------|
|----------------------------------------------------|
|-----------------------------------1111111111111111-|
|-0000000000000000-3333333333333333------------------|
                                                                        x2
|---------------------------------------------------------------------|
|---------------------------------------------------------------------|
|-----------------------------------1111111111111111------------------|
|-0000000000000000-3333333333333333------------------5555555555555555-|


*Listen for timing.
|-----------------------------------|
|-----------------------------------|
|-----------------------------------|
|-0--0------0----0--0---0----0-0--0-|


|---------------------------------------------------|
|---------------------------------------------------|
|-1-0-----------------------1-0---------------------|
|------0--3-2--0~-----(0)--------0--3-2--5~-----(5)-|x2

|-----------|
|-----------|
|-1-0-------|
|------03---|


|----------------|
|----------------|
|-------1--------|
|-7---0-----0-5--|x4


|-------------------------------------------------|
|-------------------------------------------------|
|---------------------------------1-1-1-1-1-1-1-1-|
|-0-0-0-0-0-0-0-0-3-3-3-3-3-3-3-3-----------------|
                                                                    x2
|-----------------------------------------------------------------|
|-----------------------------------------------------------------|
|---------------------------------1-1-1-1-1-1-1-1-----------------|
|-0-0-0-0-0-0-0-0-3-3-3-3-3-3-3-3-----------------5-5-5-5-5-5-5-5-|


|---------------|
|---------------|
|---------------|
|-0~------------|

*This is the part I'm not sure about, but it's played till the end of the
song.
|----------------|
|----------------|
|----------------|
|-7---0-8---0-5--|
Composición de Underøath
18 vistas

0 comentarios

Ver todos los comentarios

¿Lograste tocar?

0 Tocaron 0 Aún no

¡Graba un video tocando A Moment Suspended In Time y envíanoslo!

00:00 / 00:00
Outros vídeos desta música
Repetir Calidad Automático
Outros vídeos desta música
00:00 / 00:00
Automático
OK