Cifra Club

Alone In December

Underoath

Cifrado: Principal (guitarra y guitarra eléctrica)
Já pensou em usar uma coleção de roupas do Cifra Club? Responda as perguntas abaixo e nos ajude nessa missão! →
tono: F#
Intro Guitar 1
E|-333333-222222-333-2222-333-2222-|
B|-333333-333333-333-3333-333-3333-|
G|-000000-000000-000-0000-000-0000-|
D|-000000-000000-000-0000-000-0000-|
A|-333333-333333-333-3333-333-3333-|
D|---------------------------------|

Intro Guitar 2
E|---------------------------------------------------------|
B|-------------------10-7~-x4---7-10---7-10---7-10---15p12-|
G|---------------------------------------------------------|
D|---------------------------------------------------------|
A|---------------------------------------------------------|
D|-wait-for-keyboard---------------------------------------|

Verse 1 Guitar 1
|----------------------------|
|----------------------------|
|-999999-777777-555555555555-|
|-999999-777777-555555555555-|
|-777777-555555-333333333333-|
|----------------------------|

The 3rd Time Through Guitar 2 Does This
|-----------------------------------|
|-----------------------------------|
|-999999-121212121212-777777-555555-|
|-xxxxxx--x-x-x-x-x-x-xxxxxx-xxxxxx-|
|-777777-101010101010-555555-333333-|
|-----------------------------------|

Verse 2
|-------------------------|
|-5~-5/9~-------12-11-----|
|-x~-x/x~--------x/-x-----|
|-3~-3/7~-------10/-9-----|
|-------------------------|
Verse 1 Both Guitars
Verse 3 Guitar 1
|-So-Wrong-But-Still---This-Parts-Right-Though-|
|----------------------------------------------|
|-4-5-0-2-0-5-4-------------10-9-5-7-5-4/5-----|
|----------------------------------------------|
|----------------------------------------------|
|----------------------------------------------|

Verse 3 Guitar 2
|------|
|--3-3-|
|-0----|
|------|
|------|
|------|

Verse 4
|----------------------------------------------------After-All-That-It-Goes-|
|------------------------------------------------------------0--------------|
|-5-4-0--------------------22222222----55555555555------------5-------------|
|--------33333333-55555555-22222222----55555555555-------------5------------|
|--------33333333-55555555-00000000----33333333333--------------------------|
|--------33333333-55555555--------------------------------------------------|

Verse 5
|--------------|
|--------------|
|--5-4---4-5-4-|
|--------Over--|
|--------Over--|

Verse 6
|------------------------------------------------------------------------|
|------------------------------------------------------------------------|
|-1212121212121212121212-77/9/101010-999-777-555-444-555-444-555-444-555-|
|--x-x-x-x-x-x-x-x-x-x-x-xx/x/-x-x-x-xxx-xxx-xxx-xxx-xxx-xxx-xxx-xxx-xxx-|
|-1010101010101010101010-55/7/-8-8-8-777-555-333-222-333-222-333-222-333-|
|------------------------------------------------------------------------|

Outro
|-------|
|-------|
|-5-4-5-|
|-------|
|-------|
|-------|
Composición de Underøath
60 vistas
    • ½ Tono
    • A
    • Bb
    • B
    • C
    • Db
    • D
    • Eb
    • E
    • F
    • F#
    • G
    • Ab
  • Agregar a la lista

    0 comentarios

    Ver todos los comentarios

    ¿Lograste tocar?

    0 Tocaron 0 Aún no

    ¡Graba un video tocando Alone In December y envíanoslo!

    00:00 / 00:00
    Outros vídeos desta música
    Repetir Calidad Automático
    Outros vídeos desta música
    00:00 / 00:00
    Automático
    OK