Cifra Club

Casting Such A Thin Shadow

Underoath

Tab de bajo: Principal
Já pensou em usar uma coleção de roupas do Cifra Club? Responda as perguntas abaixo e nos ajude nessa missão! →
                   Casting Such a Thin Shadow


Bass Tab 
Any questions email me at *

x (#) | number of notes played (above tablature)
/     | Slide Up
\     | Slide Down
~     | Let Ring


(0:00)
------
No Bass for Keyboard intro (0:00) to (1:23)


(1:23)
------

G--------------------------------------------------------------|
d--------------------------------------------------------------|
A-0000-0000-0000----5555-3333----------------------------------|  x4
D-------------------------------555555555555--333333333333--0--|

(2:30)
------

G-------------------------------------------------------|
d-------------------------------------------------------|
A------------------------------------00000000000000000--| x2
D-00000000000000000-3333333333333333--------------------|

then
D--5-x16---|

Bass solo
---- ----
G----------------------|
d-------7-----7--------|
A----------------------| x4
D--33/5---33/5--55-3-0-|

(3:49)
------
G----------------------|
d----------------------|
A----------------------|  x8
D-7777\33/777777\3333--| 

(4:23)
------
  x32 x16
G--------------------------|
d------------------------3-|
A----------7-3---0-3-5-3---|
D-7---5--3-----0-----------|  x2

(4:56)
------

G-----------------------|
d-----------------------|
A-----------------------|
D-3/7777\33/77777777\33-|

G------------------------|
d------------------------|
A------------------------| play until---
D-77777\33/7777777\3333--|

5:29

G-----------------------|
d-----------------------|
A-----------------------|
D-0~~~~~~~~~~~~~~~~~----|

im pretty sure about this about *% sure
Tab and comment if you feel the need.
Composición de Underøath
20 vistas

0 comentarios

Ver todos los comentarios

¿Lograste tocar?

0 Tocaron 0 Aún no

¡Graba un video tocando Casting Such A Thin Shadow y envíanoslo!

00:00 / 00:00
Outros vídeos desta música
Repetir Calidad Automático
Outros vídeos desta música
00:00 / 00:00
Automático
OK