Cifra Club

Desperate Times Desperate Measures

Underoath

Cifrado: Principal (guitarra y guitarra eléctrica)
Já pensou em usar uma coleção de roupas do Cifra Club? Responda as perguntas abaixo e nos ajude nessa missão! →
tono: C
(intro)

E|-------------------------------------------------------------------------|
B|-------------------------------------------------------------------------|
G|-------------------------------------------------------------------------|
D|-7---0-7---0------7---0-7---01111-1111-----------------------------------|
A|-----------------------------1111-1111-----------------------------------|
D|--8~----8~--3~0----8~----8~--1111-1111-----------------------------------|

(verso)
E|-------------------------------------------------------------------------|
B|-------------------------------------------------------------------------|
G|-------------------------------------------------------------------------|
D|-7-----7-----------7-----7-----------------------------------------------|
A|-------------------------------------------------------------------------|
D|--8~-0--8~-0-3~0----8~-0--8~-0-5p0-3-------------------------------------|

(guitarra 1)
E|-------------------------------------------------------------------------|
B|-------------------------------------------------------------------------|
G|-------------------------------------------------------------------------|
D|-7-----7-----------7-----7-----------------------------------------------|
A|-------------------------------------------------------------------------|
D|--8~-0--8~-0-3~0----8~-0--8~-03333---------------------------------------|

(guitarra 2)
E|-------------------------------------------------------------------------|
B|-------------------------------------------------------------------------|
G|-7-----7-----7-10-7-----7------------------------------------------------|
D|-----0-----0----------0------0-------------------------------------------|
A|--8~----8~---------8~----8~---3333---------------------------------------|
D|-------------------------------------------------------------------------|

(refrão)

(guitarra 1)
E|-------------------------------------------------------------------------|
B|-------------------------------------------------------------------------|
G|----------------55555555-------------------------------------------------|
D|0000000000000000555555553333333355555555555555551111111111111111---------|
A|0000000000000000333333333333333355555555555555551111111111111111---------|
D|0000000000000000--------3333333355555555555555551111111111111111---------|
I pull my frail Body into a chair...

(guitarra 2)
E|------------------------10******12**************10**************---------|
B|10**************8*******------------------------|------------------------|
G|------------------------------------------------|------------------------|
D|------------------------------------------(use 13 instead of 10 2nd time)|
A|-------------------------------------------------------------------------|
D|-------------------------------------------------------------------------|

(guitarra 1)
E|-------------------------------------------------------------------------|
B|-------------------------------------------------------------------------|
G|-----------------------------------5-5-5-5-5-5-5-5-----------------------|
D|0-0-0-0-0-0-0-0-0-0-0-0-0-0-0-0----5-5-5-5-5-5-5-5-3-3-3-3-3-3-3-3-------|
A|0-0-0-0-0-0-0-0-0-0-0-0-0-0-0-0----3-3-3-3-3-3-3-3-3-3-3-3-3-3-3-3-------|
D|0-0-0-0-0-0-0-0-0-0-0-0-0-0-0-0--------------------3-3-3-3-3-3-3-3-------|

E|12-0-----------12-0----------------12-0-----------12-0-------------------|
B|----8-10-0-8-10----8-10-0-10-0-10-0----8-10-0-8-10----8-10-0-10-0-10-----|
G|-------------------------------------------------------------------------|
D|-------------------------------------------------------------------------|
A|-------------------------------------------------------------------------|
D|-------------------------------------------------------------------------|

(guitarra 1)
E|-------------------------------------------------------------------------|
B|-------------------------------------------------------------------------|
G|-------------------------------------------------------------------------|
D|5-5-5-5-5-5-5-5-5-5-5-5-5-5-5-5----1-1-1-1-1-1-1-1-1-1-1-1-1-1-1-1-------|
A|5-5-5-5-5-5-5-5-5-5-5-5-5-5-5-5----1-1-1-1-1-1-1-1-1-1-1-1-1-1-1-1-------|
D|5-5-5-5-5-5-5-5-5-5-5-5-5-5-5-5----1-1-1-1-1-1-1-1-1-1-1-1-1-1-1-1-------|

{2nd guitar}
E|8-0-------------8---0--------------8--------------8----------------------|
B|-----10-----0-8-------10-0-8-0-8-0-----10-----8---------10-----8---------|
G|-------------------------------------------------------------------------|
D|-------------------------------------------------------------------------|
A|-------------------------------------------------------------------------|
D|-------------------------------------------------------------------------|

(verso 2)

(guitarra 1)
E|-------------------------------------------------------------------------|
B|-------------------------------------------------------------------------|
G|-------------------------------------------------------------------------|
D|-7-----7-----------7-----7-----------------------------------------------|
A|-------------------------------------------------------------------------|
D|--8~-0--8~-0-3~0----8~-0--8~-0-5p0-3-------------------------------------|
 Oh God, the noise...

(guitarra 1)
E|-------------------------------------------------------------------------|
B|-------------------------------------------------------------------------|
G|-------------------------------------------------------------------------|
D|-7-----7-----------7-----7-----------------------------------------------|
A|-------------------------------------------------------------------------|
D|--8~-0--8~-0-3~0----8~-0--8~-0-3~----------------------------------------|

(ponte)

(guitarra 1)
E|-----------#----------#-----------#--------------------------------------|
B|-----------#----------#-----------#-------6------------------------------|
G|-----------#----------#-----------#-------9------------------------------|
D|-00-00-000-#-00-00-00-#-00-00-000-#-00-00--------------------------------|
A|-00-00-000-#-00-00-00-#-00-00-000-#-00-00--------------------------------|
D|-00-00-000-#-00-00-00-#-00-00-000-#-00-00--------------------------------|
I hear them talking, but can't make out the words...

(ponte - parte 2)

(guitarra 1)
E|-------------------------------------------------------------------------|
B|-------------------------------------------------------------------------|
G|---9-----------9----------9-----------9----------------------------------|
D|-0-8---------0-8--------0-8---------0-8----------------------------------|
A|-0-8---------0-8--------0-8---------0-8----------------------------------|
D|-0-8---------0-8--------0-8---------0-8----------------------------------|

(refrão)

E|-------------------------------------------------------------------------|
B|-------------------------------------------------------------------------|
G|-------------------------------------------------------------------------|
D|-------------------------------------------------------------------------|
A|-----------------33333333------------------------------------------------|
D|-0000000000000000--------3333333355555555555555551111111111111111--------|
Where have I been, What terrible company...

(guitarra 1)
E|-------------------------------------------------------------------------|
B|-------------------------------------------------------------------------|
G|----------------55555555-------------------------------------------------|
D|0000000000000000555555553333333355555555555555551111111111111111---------|
A|0000000000000000333333333333333355555555555555551111111111111111---------|
D|0000000000000000--------3333333355555555555555551111111111111111---------|
When I sink to the bottom...

(guitarra 2)
E|------------------------10******12**************13**************---------|
B|10**************8*******-------------------------------------------------|
G|-------------------------------------------------------------------------|
D|-------------------------------------------------------------------------|
A|-------------------------------------------------------------------------|
D|-------------------------------------------------------------------------|

(guitarra 1)
E|-------------------------------------------------------------------------|
B|-------------------------------------------------------------------------|
G|-----------------------------------5-5-5-5-5-5-5-5-----------------------|
D|0-0-0-0-0-0-0-0-0-0-0-0-0-0-0-0----5-5-5-5-5-5-5-5-3-3-3-3-3-3-3-3-------|
A|0-0-0-0-0-0-0-0-0-0-0-0-0-0-0-0----3-3-3-3-3-3-3-3-3-3-3-3-3-3-3-3-------|
D|0-0-0-0-0-0-0-0-0-0-0-0-0-0-0-0--------------------3-3-3-3-3-3-3-3-------|

(guitarra 2)
E|12-0-----------12-0----------------12-0-----------12-0-------------------|
B|----8-10-0-8-10----8-10-0-10-0-10-0----8-10-0-8-10----8-10-0-10-0-10-----|
G|-------------------------------------------------------------------------|
D|-------------------------------------------------------------------------|
A|-------------------------------------------------------------------------|
D|-------------------------------------------------------------------------|

(guitarra 1)
E|-------------------------------------------------------------------|-0---|
B|----------------------------------(end the 2nd time on a full D)-> |-3---|
G|-------------------------------------------------------------------|-2---|
D|5-5-5-5-5-5-5-5-5-5-5-5-5-5-5-5----1-1-1-1-1-1-1-1-1-1-1-1-1-1-1-1-|-0---|
A|5-5-5-5-5-5-5-5-5-5-5-5-5-5-5-5----1-1-1-1-1-1-1-1-1-1-1-1-1-1-1-1-|-0---|
D|5-5-5-5-5-5-5-5-5-5-5-5-5-5-5-5----1-1-1-1-1-1-1-1-1-1-1-1-1-1-1-1-|-0---|

{2nd guitar}
E|8-0-------------8---0--------------8--------------8----------------------|
B|-----10-----0-8-------10-0-8-0-8-0-----10-----8---------10-----8---------|
G|-------------------------------------------------------------------------|
D|-------------------------------------------------------------------------|
A|-------------------------------------------------------------------------|
D|-------------------------------------------------------------------------|

(outro)

(guitarra 2)
E|-------------------------------------------------------------------------|
B|-------------------------------------------------------------------------|
G|-7-----------------------------------------------------------------------|
D|-x---(hold this until the screaming begins)------------------------------|
A|-5-----------------------------------------------------------------------|
D|-------------------------------------------------------------------------|

(guitarra 2)
E|-------------------------------------------------------------------------|
B|-------------------------------------------------------------------------|
G|-77\-7777\-77\-77\-77\-7777\-77\-77\-------------------------------------|
D|-xx--xxxx--xx--xx--xx--xxxx--xx--xx--------------------------------------|
A|-55\-5555\-55\-55\-55\-5555\-55\-55\-------------------------------------|
D|-------------------------------------------------------------------------|

(guitarra 2)
E|-------------------------------------------------------------------------|
B|-------------------------------------------------------------------------|
G|-77\-7777\-77\-77\-77\-7777\---------------------------------------------|
D|-xx--xxxx--xx--xx--xx--xxxx----------------------------------------------|
A|-55\-5555\-55\-55\-55\-5555\---------------------------------------------|
D|-------------------------------------------------------------------------|
Composición de Aaron Gillespie / Spencer Chamberlain / Underøath
Colaboración y revisión:
  • Jefferson Sousa
18 vistas
    • ½ Tono
    • A
    • Bb
    • B
    • C
    • Db
    • D
    • Eb
    • E
    • F
    • F#
    • G
    • Ab
  • Agregar a la lista

    0 comentarios

    Ver todos los comentarios

    ¿Lograste tocar?

    0 Tocaron 0 Aún no

    ¡Graba un video tocando Desperate Times Desperate Measures y envíanoslo!

    00:00 / 00:00
    Outros vídeos desta música
    Repetir Calidad Automático
    Outros vídeos desta música
    00:00 / 00:00
    Automático
    OK