Cifra Club

Dive

Underoath

Tab de bajo: Principal
Já pensou em usar uma coleção de roupas do Cifra Club? Responda as perguntas abaixo e nos ajude nessa missão! →
intro x2

g[----------------------------------------------]
d[------------------2-2-2-----------------------]
a[----------------------------------------------]
e[--2-0-2b-0-2b-0-0-----------------------------]

verse x12

g[----------------------------------------------]
d[------------------2-2-2-----------------------]
a[----------------------------------------------]
e[--2-0-2b-0-2b-0-0-----------------------------]

chorus x3

g[----------------------------------------------]
d[----------------------------------------------]
a[----------------------------------------------]
e[--2-x-0-2-4-x-0-4-6-x-0-6-8-x-0---------------]

g[----------------------------------------------]
a[------------------2-2-2-----------------------]
d[----------------------------------------------]
e[--2-0-2b-0-2b-0-0-----------------------------]


after chorus play verse riff 3x

play verse x8

play chorus x3

after chorus play verse riff x4

solo x8

g[----------------------------------------------]
a[--8-6-8-8-6-8-8-------------------------------]
d[----------------7-7---------------------------]
e[----------------------------------------------]

play chorus x3

play verse riff x6
Compositor não encontrado.
16 vistas

0 comentarios

Ver todos los comentarios
00:00 / 00:00
Outros vídeos desta música
Repetir Calidad Automático
Outros vídeos desta música
00:00 / 00:00
Automático
OK