Cifra Club

Down Set Go

Underoath

Cifrado: Principal (guitarra y guitarra eléctrica)
Já pensou em usar uma coleção de roupas do Cifra Club? Responda as perguntas abaixo e nos ajude nessa missão! →
tono: F#m
[Intro]

  Guitar 1
E|------------------------------------------------------------|
B|------------------------------------------------------------|
G|10-10-10-10-10-10--7-7-7-7-7-7-7-7-7-7-7-7--4-4-4-4-4-4-4-4-|
D|-x--x--x--x--x--x--x-x-x-x-x-x-x-x-x-x-x-x--x-x-x-x-x-x-x-x-| (2x)
A|-9--9--9--9--9--9--5-5-5-5-5-5-5-5-5-5-5-5--2-2-2-2-2-2-2-2-|
E|------------------------------------------------------------|

  Guitar 2
E|-------------------------------------------------------|
B|-------------------------------------------------------|
G|-------------------------------------------------------|
D|-4-4-4-4-4-4--0-0-0-0-0-0-0-0-0-0-0-0--2-2-2-2-2-2-2-2-| (2x)
A|-4-4-4-4-4-4--0-0-0-0-0-0-0-0-0-0-0-0--2-2-2-2-2-2-2-2-|
E|-4-4-4-4-4-4--0-0-0-0-0-0-0-0-0-0-0-0--2-2-2-2-2-2-2-2-|


[Verso]

  Guitar 1 ("Im a half wited boy")

E|-12-12-12-12-12--9-9-9-9-9-9-9--4-4-4-4-4-4-|
B|-10-10-10-10-10--7-7-7-7-7-7-7--5-5-5-5-5-5-|
G|--------------------------------------------|
D|--------------------------------------------| (4x)
A|--------------------------------------------|
E|--------------------------------------------|

  Guitar 2
E|-------------------------------------------------------|
B|-------------------------------------------------------|
G|-------------------------------------------------------|
D|-4-4-4-4-4-4--0-0-0-0-0-0-0-0-0-0-0-0--2-2-2-2-2-2-2-2-| (4x)
A|-4-4-4-4-4-4--0-0-0-0-0-0-0-0-0-0-0-0--2-2-2-2-2-2-2-2-|
E|-4-4-4-4-4-4--0-0-0-0-0-0-0-0-0-0-0-0--2-2-2-2-2-2-2-2-|
   . . . . . .  . . . . . . . . . . . .  . . . . . . . .

  Guitar 1
E|----|
B|----|
G|----|
D|-0~-|
A|-0~-|
E|-0~-|

  Guitar 2
E|---|
B|---|
G|---|
D|-0-|
A|-0-|
E|-0-|

[Refrão]

E|----------------------------------------------|
B|----------------------------------------------|
G|----------------------------------------------|
D|-4-4-4-4-4-4-4-4-4-4-4--7-7-7-7-7-7-7-7-7-7-7-|
A|-4-4-4-4-4-4-4-4-4-4-4--7-7-7-7-7-7-7-7-7-7-7-|
E|-4-4-4-4-4-4-4-4-4-4-4--7-7-7-7-7-7-7-7-7-7-7-|

E|----------------------------------------------|
B|----------------------------------------------|
G|----------------------------------------------|
D|-0-0-0-0-0-0-0-0-0-0-0--2-2-2-2-2-2-2-2-2-2-2-| (2x)
A|-0-0-0-0-0-0-0-0-0-0-0--2-2-2-2-2-2-2-2-2-2-2-|
E|-0-0-0-0-0-0-0-0-0-0-0--2-2-2-2-2-2-2-2-2-2-2-|

[Intro]

Guitar 1
E|------------------------------------------------------------|
B|------------------------------------------------------------|
G|10-10-10-10-10-10--7-7-7-7-7-7-7-7-7-7-7-7--4-4-4-4-4-4-4-4-|
D|-x--x--x--x--x--x--x-x-x-x-x-x-x-x-x-x-x-x--x-x-x-x-x-x-x-x-| (3x)
A|-9--9--9--9--9--9--5-5-5-5-5-5-5-5-5-5-5-5--2-2-2-2-2-2-2-2-|
E|------------------------------------------------------------|

  Guitar 2 (....to the top of the world..)
E|-------------------------------------------------------|
B|-------------------------------------------------------|
G|-------------------------------------------------------|
D|-4-4-4-4-4-4--0-0-0-0-0-0-0-0-0-0-0-0--2-2-2-2-2-2-2-2-| (2x)
A|-4-4-4-4-4-4--0-0-0-0-0-0-0-0-0-0-0-0--2-2-2-2-2-2-2-2-|
E|-4-4-4-4-4-4--0-0-0-0-0-0-0-0-0-0-0-0--2-2-2-2-2-2-2-2-|

[Verso]

Guitar 1 (She's a maveric shes so smooth)

E|-12-12-12-12-12--9-9-9-9-9-9-9--4-4-4-4-4-4-|
B|-10-10-10-10-10--7-7-7-7-7-7-7--5-5-5-5-5-5-|
G|--------------------------------------------|
D|--------------------------------------------| (4x)
A|--------------------------------------------|
E|--------------------------------------------|

  Guitar 2
E|-------------------------------------------------------|
B|-------------------------------------------------------|
G|-------------------------------------------------------|
D|-4-4-4-4-4-4--0-0-0-0-0-0-0-0-0-0-0-0--2-2-2-2-2-2-2-2-| (4x)
A|-4-4-4-4-4-4--0-0-0-0-0-0-0-0-0-0-0-0--2-2-2-2-2-2-2-2-|
E|-4-4-4-4-4-4--0-0-0-0-0-0-0-0-0-0-0-0--2-2-2-2-2-2-2-2-|
   . . . . . .  . . . . . . . . . . . .  . . . . . . . .

E|----|
B|----|
G|----|
D|-0~-|
A|-0~-|
E|-0~-|

[Refrão]

E|----------------------------------------------|
B|----------------------------------------------|
G|----------------------------------------------|
D|-4-4-4-4-4-4-4-4-4-4-4--7-7-7-7-7-7-7-7-7-7-7-|
A|-4-4-4-4-4-4-4-4-4-4-4--7-7-7-7-7-7-7-7-7-7-7-|
E|-4-4-4-4-4-4-4-4-4-4-4--7-7-7-7-7-7-7-7-7-7-7-|

E|----------------------------------------------|
B|----------------------------------------------|
G|----------------------------------------------|
D|-0-0-0-0-0-0-0-0-0-0-0--2-2-2-2-2-2-2-2-2-2-2-| (2x)
A|-0-0-0-0-0-0-0-0-0-0-0--2-2-2-2-2-2-2-2-2-2-2-|
E|-0-0-0-0-0-0-0-0-0-0-0--2-2-2-2-2-2-2-2-2-2-2-|

E|-5-5-5-5-5-5--4-4-4-4-4-4--|
B|-7-7-7-7-7-7--7-7-7-7-7-7--|
G|---------------------------|
D|---------------------------| (3x)
A|---------------------------|
E|---------------------------|

E|-5-5-5-5-5-5--4-4-4-4-4-4--|
B|-7-7-7-7-7-7--7-7-7-7-7-7--|
G|---------------------------|
D|---------------------------|
A|---------------------------|
E|---------------------------|

  Guitar 1
E|----------------------------------------------------|
B|----------------------------------------------------|
G|11-11-11-x-x-11-11-11-x-x-11-11-11-x-x-11-11-11-x-x-|  (4x)
D|11-11-11-x-x-11-11-11-x-x-11-11-11-x-x-11-11-11-x-x-|
A|-9--9--9-x-x--9--9--9-x-x--9--9--9-x-x--9--9--9-x-x-|
E|-x--x--x-x-x--x--x--x-x-x--x--x--x-x-x--x--x--x-x-x-|

E|-----------------------------------------|
B|-----------------------------------------|
G|-7-7-7-x-x-7-7-7-x-x-4-4-4-x-x-4-4-4-x-x-|
D|-7-7-7-x-x-7-7-7-x-x-4-4-4-x-x-4-4-4-x-x-|
A|-5-5-5-x-x-5-5-5-x-x-2-2-2-x-x-2-2-2-x-x-|
E|-x-x-x-x-x-x-x-x-x-x-x-x-x-x-x-x-x-x-x-x-|

Guitar 2 (clean guitar)

E|-----9---------9--------7---------|
B|---7---7~----7---7~---7---7~------|
G|-9---------9--------9-------------|
D|----------------------------------| (2x)
A|----------------------------------|
E|----------------------------------|

Guitar 2

E|-4---4-2---2-4---4-2---2----------|
B|---5-----5-----5-----5------------|
G|----------------------------------|
D|----------------------------------|
A|----------------------------------|
E|----------------------------------|

E|-9---9-7---7-9---9-7---7----------|
B|---7-----7-----7-----7------------|
G|----------------------------------|
D|----------------------------------|
A|----------------------------------|
E|----------------------------------|

E|-4---4-2---2-4---4-2---2----------|
B|---5-----5-----5-----5------------|
G|----------------------------------|
D|----------------------------------|
A|----------------------------------|
E|----------------------------------|

E|-9---9---9---9---7---7--7---7-----|
B|---7---7---7---7---7--7---7---7---|
G|----------------------------------|
D|----------------------------------| (2x)
A|----------------------------------|
E|----------------------------------|

Guitar 1

E|------------------------------------------------------------------|
B|------------------------------------------------------------------|
G|------------------------------------------------------------------|
D|-4-4-4-4-4-4-4-4-4-4-4-4--0-0-0-0-0-0-0-0-0-0-0--2-2-2-2-2-2-2-2-2| (4X)
A|-4-4-4-4-4-4-4-4-4-4-4-4--0-0-0-0-0-0-0-0-0-0-0--2-2-2-2-2-2-2-2-2|
E|-4-4-4-4-4-4-4-4-4-4-4-4--0-0-0-0-0-0-0-0-0-0-0--2-2-2-2-2-2-2-2-2|

Guitar 2

E|-9-0-5-0-7-0----------------------|
B|-------------9-0------------------|
G|----------------------------------|
D|----------------------------------|
A|----------------------------------|
E|----------------------------------|

 Guitar 1
E|----|
B|----|
G|----|
D|-4~-|
A|-4~-|
E|-4~-|

 Guitar 2
E|----|
B|-9~-|
G|----|
D|----|
A|----|
E|----|
Composición de Underøath
Colaboración y revisión:
  • Lucas Kappaun
1 vistas
    • ½ Tono
    • Am
    • Bbm
    • Bm
    • Cm
    • C#m
    • Dm
    • Ebm
    • Em
    • Fm
    • F#m
    • Gm
    • G#m
  • Agregar a la lista

    0 comentarios

    Ver todos los comentarios

    ¿Lograste tocar?

    0 Tocaron 0 Aún no

    ¡Graba un video tocando Down Set Go y envíanoslo!

    00:00 / 00:00
    Outros vídeos desta música
    Repetir Calidad Automático
    Outros vídeos desta música
    00:00 / 00:00
    Automático
    OK