Cifra Club

Heart Of Stone

Underoath

Cifrado: Principal (guitarra y guitarra eléctrica)
Já pensou em usar uma coleção de roupas do Cifra Club? Responda as perguntas abaixo e nos ajude nessa missão! →
tono: E
I love this song. I saw their was no tab so i thought id put all i know up.
im about 80% sure of what i got.


e|-----------------------|
B|-----------------------|
G|-----------------------|
D|1-4-3-0-1-3-1-0--------| x2
A|1-4-3-0-1-3-1-0--------|
D|1-4-3-0-1-3-1-0--------|

e|-----------------------|
B|-----------------------|
G|-----------------------|
D|0-0-0-0-0-0-0-0-1-1-4--| x4
A|0-0-0-0-0-0-0-0-1-1-4--|
D|0-0-0-0-0-0-0-0-1-1-4--|
  . . . . . . . . . . .

e|---------------------------------|
B|---------------------------------|
G|---------------------------------|
D|-0-0-1-2-0-0-2-3-0-0-3-4-0-0-6-\-|
A|-0-0-1-2-0-0-2-3-0-0-3-4-0-0-6-\-|
D|-0-0-1-2-0-0-2-3-0-0-3-4-0-0-6-\-|
   . . . . . . . . . . . . . . .

e|-----------------|
B|-----------------|
G|-----------------|
D|1-0-4-0-1-0-3-0--| x12
A|1-0-4-0-1-0-3-0--|
D|1-0-4-0-1-0-3-0--|
  . . . . . . . .

e|-----------------------------------|
B|-----------------------------------|
G|-----------------------------------|
D|1-0-4-0-1-0-3-0---1-4-3-0-1-3-1-0--|
A|1-0-4-0-1-0-3-0--------------------| x2
D|1-0-4-0-1-0-3-0--------------------|
  . . . . . . . . /double strike these\
e|-------------------------------------|
B|-------------------------------------|
G|-------------------------------------|
D|1-0-4-0-1-1-0-3-0---1-4-3-0-1-3-1-0--|
A|1-0-4-0-1-1-0-3-0--------------------|
D|1-0-4-0-1-1-0-3-0--------------------|
  . . . . . . . . . /double strike these\
e|-----------------------------------|
B|-----------------------------------|
G|-----------------------------------|
D|1-0-4-0-1-0-3-0---1-4-3-0-1-3-1-0--| 
A|1-0-4-0-1-0-3-0--------------------|
D|1-0-4-0-1-0-3-0--------------------|
  . . . . . . . . /double strike these\

e|-----------------|
B|-----------------|
G|-----------------|
D|1-0-4-0-1-0-3-0--| 
A|1-0-4-0-1-0-3-0--|
D|1-0-4-0-1-0-3-0--|
Compositor não encontrado.
14 vistas
    • ½ Tono
    • A
    • Bb
    • B
    • C
    • Db
    • D
    • Eb
    • E
    • F
    • F#
    • G
    • Ab
  • Agregar a la lista

    0 comentarios

    Ver todos los comentarios

    ¿Lograste tocar?

    1 Tocaron 0 Aún no

    ¡Graba un video tocando Heart Of Stone y envíanoslo!

    00:00 / 00:00
    Outros vídeos desta música
    Repetir Calidad Automático
    Outros vídeos desta música
    00:00 / 00:00
    Automático
    OK