Cifra Club

I Dont Feel Very Receptive Today

Underoath

Tab de bajo: Principal
Já pensou em usar uma coleção de roupas do Cifra Club? Responda as perguntas abaixo e nos ajude nessa missão! →
Just Follow The Guitar



Intro


G|--------------------------------------------|
D|--------------------------------------------|    X4
A|--------------------------------------------|
D|8-8-8-8-8-8-8-8-8-8-8-8-8-8-8-8-8-0-0-0-0-0-|
                                

G|-----------------------------------|
D|-----------------------------------|   X4
A|-----------------------------------|
D|-0-0-0-0-0-0-----------------------|

G|--------------------------------------------------|
D|--------------------------------------------------|
A|--------------------------------------------------|
D|-8-8-8-8-8-8-8-8-8-8-8-8--5-5-5-5-5-5-5-5-5-5-5-5-|

G|--------------------------------------------------------------|
D|--------------------------------------------------------------|   X2
A|--------------------------------------------------------------|
D|-0-0-0-0-0-0-0-0-0-0-0-0--10-10-10-10-10-10-10-10-10-10-10-10-|

G|----------------------------------|
D|----------------------------------|
A|-8--8/10-10-10-10/7-7-7-7-7-7-7-7-|
D|----------------------------------|

G|----------------------------------|
D|-----------(20-times)-------------|   x2
A|--------12------------------------|
D|-0-0-0----------------------------|

G|----------------------------------|
D|----------------------------------|
A|----------------------------------|
D|-0-0-0----------------------------|

G|----------------------------------|
D|-----------(20-times)-------------|    x2
A|--------12------------------------|
D|-0-0-0----------------------------|

G|----------------------------------|
D|---(15 times)----(5 times)--------|
A|-12------------10-----------------|
D|----------------------------------|

G|------------------------------------------------------|
D|------------------------------------------------------|
A|-12-----------13----------17-------------15-----------|
D|------------------------------------------------------|



G|-----------------------------------------|
D|-----------------------------------------|    X4 
A|-5-5/-8--8--8--8--8--8--8--8--8--8--8--8-|
D|-----------------------------------------|


G|--------------------------------------------------------------|
D|--------------------------------------------------------------|
A|--------------12-x-12-x-12-x-12-x-12-x-12-x-12-x-12-x-12-x-12-|
D|-0-0-0-0-0-0--------------------------------------------------|
       

G|----------------------------------|
D|----------------------------------|   X4  
A|----------------------------------|
D|-5-5-5-5--8-8-8-8-----------------|
Composición de Underøath
14 vistas

0 comentarios

Ver todos los comentarios

¿Lograste tocar?

0 Tocaron 0 Aún no

¡Graba un video tocando I Dont Feel Very Receptive Today y envíanoslo!

00:00 / 00:00
Outros vídeos desta música
Repetir Calidad Automático
Outros vídeos desta música
00:00 / 00:00
Automático
OK