Cifra Club

Im Content With Losing

Underoath

Tab de bajo: Principal
Já pensou em usar uma coleção de roupas do Cifra Club? Responda as perguntas abaixo e nos ajude nessa missão! →
Tabbed by: Texasayses00
E-Mail:S*



ok no can tab this song right so heres my shot at it




Keys:

h - hammer on

p - pull off

() - let note ring

\ or/ - slide to note





ok it starts like this......



     Intro (0:01)  "like I said!"
G------------------------------------------------------------------------------------|
D------------------------------------------------------------------------------------|
A-0-00-00000-0000-0-00-00000-00000/4-44-44444-4444-2-22-22222-22222-222--------------|
D------------------------------------------------------------------------------------|


     Intro (continued)
G------------------------------------------------------------------------------------|
D------------------------------------------------------------------------------------|
A-0-00-00000-00000-0-00-00000-77-44-0h4-44-44444-44444-2-22-22222-22222--------------|
D------------------------------------------------------------------------------------|

    (i dont know if this is the intro or verse...)
    Into/verse?    "How does it feel to be on the receiving end..."
G------------------------------------------------------------------------------------|
D------------------------------------------------------------------------------------|
A-000000000000000000000--4444444444444-2222222222222---------------------------------|
D------------------------------------------------------------------------------------|
(let the last note ring)

     Chorus   "i'm half way there....and its all on me!"
G------------------------------------------------------------------------------------|
D------------------------------------------------------------------------------------|
A-44444444444444-22222222222222-0000000000000-222222222222222------------------------|
D------------------------------------------------------------------------------------|


     Chorus (continued) "THIS IS THE WAY ITS GOT TO BE!"
G------------------------------------------------------------------------------------|
D------------------------------------------------------------------------------------|
A-444444444444444-22222222-2-2-0000000000000000-2222222222---------------------------|
D------------------------------------------------------------------------------------|


     Post-Chorus
G------------------------------------------------------------------------------------|
D------------------------------------------------------------------------------------|
A-0-00------4-44-22-2h4p2--0-00------4444-(2)----------------------------------------|
D------4-44---------------------4-44-------------------------------------------------|

     Verse   "I'll fantasize of being left..."
G------------------------------------------------------------------------------------|
D------------------------------------------------------------------------------------|
A-0000000000000000000000000000-444444444444444-22222222222222------------------------|
D------------------------------------------------------------------------------------|

     Verse (continued)
G------------------------------------------------------------------------------------|
D------------------------------------------------------------------------------------|
A-00000000000000000000000000000/444444444444444-22222222222222-----------------------|
D------------------------------------------------------------------------------------|

     Bridge/breakdown?  "this is the moment that we all live for...are you ready?"
G------------------------------------------------------------------------------------|
D------------------------------------------------------------------------------------|
A-0000000000000-222222222222222-44444444444444-222222222222-15\----------------------|
D------------------------------------------------------------------------------------|

   Chorus   "i'm half way there....and its all on me!"
G------------------------------------------------------------------------------------|
D------------------------------------------------------------------------------------|
A-44444444444444-22222222222222-0000000000000-222222222222222------------------------|
D------------------------------------------------------------------------------------|


     Chorus (continued) "THIS IS THE WAY ITS GOT TO BE!"
G------------------------------------------------------------------------------------|
D------------------------------------------------------------------------------------|
A-444444444444444-22222222-2-2-0000000000000000-2222222222---------------------------|
D------------------------------------------------------------------------------------|


     Post-Chorus
G------------------------------------------------------------------------------------|
D------------------------------------------------------------------------------------|
A-0-00------4-44-22-2h4p2--0-00------4444-2222---------------------------------------|
D------4-44---------------------4-44-------------------------------------------------|

     (i think this is the bridge)
     Bridge      "you cant see past my waving hands!"
G------------------------------------------------------------------------------------|
D------------------------------------------------------------------------------------|X2
A-0-00000---------4-44444-2-22-222---------------------------------------------------|
G---------4-44444--------------------------------------------------------------------|


     Breakdown
G------------------------------------------------------------------------------------|
D------------------------------------------------------------------------------------|X12
A-(0)----------------------4444444---------------------------------------------------|
D------------------------------------------------------------------------------------|

play this till the end of the song..............ya i counted its 12 times....


thats my tab i hope its better than the other ones.


please put corrections because i think i might have messed up...this is my first 
tab...


comments too!
Composición de Underøath
15 vistas

0 comentarios

Ver todos los comentarios

¿Lograste tocar?

0 Tocaron 0 Aún no

¡Graba un video tocando Im Content With Losing y envíanoslo!

00:00 / 00:00
Outros vídeos desta música
Repetir Calidad Automático
Outros vídeos desta música
00:00 / 00:00
Automático
OK