Cifra Club

In Regards To Myself Intro

Underoath

Cifrado: Principal (guitarra y guitarra eléctrica)
Já pensou em usar uma coleção de roupas do Cifra Club? Responda as perguntas abaixo e nos ajude nessa missão! →
tono: C
Great Song, No Good Tabs For It.                               
Not 100%, But It's Close Enough, Enjoy.

  |-Legend-|
 p - Pull Off
 h - Hammer On
 ~ - Vibrato
 x - Dead Note
 ^ - Bend Note
 / - Slide

Intro
e|--------------------0---------------------------------------|
B|--------------------4---------------------------------------|
G|--------------------------------9-xx-9-9--------------------| X6
D|--------------------------------x-xx-x-x---------2-xxxx-----| X6
A|-----7--------------------------8-xx-8-8---------2-xxxx-----|
D|--0-----3h5p0h8h10------0h10p0-------------0h3p0-2-xxxx-----|

2nd Part
e|--------------------|     |-------------|
B|--------------------|     |-------------|   
G|--------------------| X8  |-------------|
D|--0-xx-0-xx-2^3^2---| X8  |---1--7--0---|
A|--0-xx-0-xx-2^3^2---|     |---1--7--0---|
D|--0-xx-0-xx-2^3^2---|     |---1--7--0---|

3rd Part                               
e|----------------------------------------------------------------------|
B|----------------------------------------------------------------------|
G|----------------------------------------------------------------------| X2
D|--11-1111-111111--7-7-777--3-33-333--1x1x1--1-11-111--7-77-777--333-x-| X2
A|--11-1111-111111--7-7-777--3-33-333--1x1x1--1-11-111--7-77-777--333-x-|
D|--11-1111-111111--7-7-777--3-33-333--1x1x1--1-11-111--7-77-777--333-x-|

4th Part
e|-------------------------------------------|
B|----------------------6^-6^----------------|
G|----------------------9^-9^----------------| X4
D|--0h3/14-3--0h3/14-0---------0h3h2-x-2-0---| X4
A|--0h3/14-3--0h3/14-0---------0h3h2-x-2-0---|
D|--0h3/14-3--0h3/14-0---------0h3h2-x-2-0---|


More To Come Soon.
Transcribed By: Jordan Crompton
Compositor não encontrado.
26 vistas
    • ½ Tono
    • A
    • Bb
    • B
    • C
    • Db
    • D
    • Eb
    • E
    • F
    • F#
    • G
    • Ab
  • Agregar a la lista

    0 comentarios

    Ver todos los comentarios

    ¿Lograste tocar?

    0 Tocaron 0 Aún no

    ¡Graba un video tocando In Regards To Myself Intro y envíanoslo!

    00:00 / 00:00
    Outros vídeos desta música
    Repetir Calidad Automático
    Outros vídeos desta música
    00:00 / 00:00
    Automático
    OK