Cifra Club

Moving For The Sake Of Motion

Underoath

Tab de bajo: Principal
Já pensou em usar uma coleção de roupas do Cifra Club? Responda as perguntas abaixo e nos ajude nessa missão! →
Tabbed By :Michael & Robert 
e-mail: MIKEMIGGER@*

Tuning:DADG
                             intro/chorus
G|-----------------------------------------------------------------------|
D|-----------------------------------------------------------------------|
A|-----------------------------------------------------------------------|
D|---2*16------9*8-----7*8----10*16------------12*16---------------------|
                                verse
G|-----------------------------------------------------------------------|
D|-----------------------------------------------------------------------|
A|-----------------------------------------------------------------------|
D|-----2*16-------10-10-10-12-12-12-----7*10---------(5~)second-time-----|
                                fill
G|-----------------------------------------------------------------------|
D|-----------------------------------------------------------------------|
A|---------95---95--12-----14~--------(14)second-time--------------------|
D|----5------------------------------------------------------------------|
                                 verse 2
G|-----------------------------------------------------------------------|
D|-----------------------------------------------------------------------|
A|-------9---------10----------------------------------------------------|
D|---2/--------2/--------4-0-4-0-----------------------------------------|
                                 fill 2
G|-----------------------------------------------------------------------|
D|-----------------------------------------------------------------------|
A|----3*8----------5-5-5-5----2-2-2-2------------------------------------|
D|-----------------------------------------------------------------------|
                                 break 
G|-----------------------------------------------------------------------|
D|-----------------------------------------------------------------------|
A|---------------------(10)sixth-time-(7)--------------------------------|
D|----2~-------------4~--------------------------------------------------|
                                verse 3
G|-----------------------------------------------------------------------|
D|-----------------------------------------------------------------------|
A|------------9-----------9-----------9/---------------------------------|
D|------2----------2------------2----------------------------------------|
                                verse 4
G|-----------------------------------------------------------------------|
D|-----------------------------------------------------------------------|
A|-----------------------------------------------------------------------|
D|-----7/slide-down-----7/slide-down----------9-9-9-0--------------------|
                                end
G|-----------------------------------------------------------------------|
D|-----------------------------------------------------------------------|
A|-----------------------------------------------------------------------|
D|-9~~~/~~~~~~huge-slide-------------------------------------------------|


   order
chorus X 2
verse X 2
fill X 1
verse X 2
fill X 1
verse #2 X4
fill #2 X 1
verse #2 X 1
chorus X 2
break X 6
verse #3 X 4
verse #4 X 4
end X 1
Composición de Underøath
15 vistas

0 comentarios

Ver todos los comentarios

¿Lograste tocar?

0 Tocaron 0 Aún no

¡Graba un video tocando Moving For The Sake Of Motion y envíanoslo!

00:00 / 00:00
Outros vídeos desta música
Repetir Calidad Automático
Outros vídeos desta música
00:00 / 00:00
Automático
OK