Cifra Club

Some Seek Forgiveness Others Escape

Underoath

Cifrado: Principal (guitarra y guitarra eléctrica)
Já pensou em usar uma coleção de roupas do Cifra Club? Responda as perguntas abaixo e nos ajude nessa missão! →
tono: D
Tabbed By: AvngdSvnfold
STANDARD TUNING

INTRO

Guitar 1
e|----------------------------RIFF-A-----------------------------|
B|---------------------------------------------------------------|
G|---------------------------------------------------------------|
D|------9-11-----9-11-----9-11-----9-11-----9-11-----9-11--------|
A|--7h9-7----7h9-7----7h9-7----7h9-7----7h9-7----7h9-7----7h9----|
E|---------------------------------------------------------------|

VERSE
And I heard a voice through the discord...

Guitar 1
e|----------------------------RIFF-B-----------------------------|
B|---------------------------------------------------------------|
G|------11-9-----11-9-----11-9-----11-9-----11-9-----11-9--------|
D|--9p7------9p7------9p7------9p7------9p7------9p7--------(x2)-|
A|---------------------------------------------------------------|
E|---------------------------------------------------------------|

Guitar 2
e|--0------0------2------2---0------0------2--------2------------|
B|--2------3------3--------3s2------3------3------3--------------|
G|--2------2------0----------2------2------0---------------------|
D|--0------0------0----------0------0------0---------------------|
A|---------X------X-----------------X------X---------------------|
E|---------3------3-----------------3------3---------------------|

Guitar 1: RIFF A (x4)

Guitar 2
RIFF C
e|-----0--------0------0-----------------------0-------0------0--|
B|-------12-------12-----12---0-7s12-------------12------12------|
G|------------------------------------(x3)-----------------------|
D|--12-------11------9------7---------------12------11------9----|
A|---------------------------------------------------------------|
E|---------------------------------------------------------------|

e|---------------------------------------------------------------|
B|--12----0------------------------------------------------------|
G|----------7----------------------------------------------------|
D|------7--------------------------------------------------------|
A|---------------------------------------------------------------|
E|---------------------------------------------------------------|

CHORUS
Hey unfaithful...

Guitar 1
e|-----------------0---0-----------------------------------------|
B|--10---10---10-----------------(x4)----------------------------|
G|-----7----7----7---7---7-9s11----------------------------------|
D|---------------------------------------------------------------|
A|---------------------------------------------------------------|
E|---------------------------------------------------------------|

Guitar 2
e|-2--2----0-0---0-0-0-0----------------------------0--0----0-0--|
B|-3--3----3-3---3-3-3-3----3--3----3-3--3-3-3-3----2--2----3-3--|
G|-0--0----0-0---0-0-0-0----2--2----2-2--2-2-2-2----2--2----2-2--|
D|-0--0----0-0---0-0-0-0----0--0----0-0--0-0-0-0----0--0----0-0--|
A|-X--X----X-X---X-X-X-X----0--0----0-0--0-0-0-0-----------------|
E|-3--3----3-3---3-3-3-3-----------------------------------------|

e|-0-0-0-0----0--0----0-0----0-0-0-0----2--2----0--0----0-0-0-0--|
B|-3-3-3-3----2--2----3-3----3-3-3-3----3--3----3--3----3-3-3-3--|
G|-2-2-2-2----2--2----2-2----2-2-2-2----0--0----0--0----0-0-0-0--|
D|-0-0-0-0----0--0----0-0----0-0-0-0----0--0----0--0----0-0-0-0--|
A|--------------------------------------X--X----X--X----X-X-X-X--|
E|--------------------------------------3--3----3--3----3-3-3-3--|

e|----------------------------0--0----0--0----0-0-0-0----0--0----|
B|--3--3----3-3----3-3-3-3----2--2----3--3----3-3-3-3----2--2----|
G|--2--2----2-2----2-2-2-2----2--2----2--2----2-2-2-2----2--2----|
D|--0--0----0-0----0-0-0-0----0--0----0--0----0-0-0-0----0--0----|
A|--0--0----0-0----0-0-0-0---------------------------------------|
E|---------------------------------------------------------------|

e|--0--0----0-0----0-0-0-0---------0-2---------------------------|
B|--2--2----3-3----3-3-3-3----0--------3-------------------------|
G|--2--2----2-2----2-2-2-2----0----------0-----------------------|
D|--0--0----0-0----0-0-0-0----0------------0---------------------|
A|----------------------------X----------------------------------|
E|----------------------------3--------------3-------------------|

VERSE 2
Here's my kiss to betray...

GUITAR 1: RIFF B (x4)

GUITAR 2
e|--0----2----0------2----0----2----0----------------------------|
B|--2----3----3----2------2----3----3----------------------------|
G|--2----2----2-----------2----0----2----------------------------|
D|--0----0----0-----------0----0----0----------------------------|
A|-------X----X----------------X----X----------------------------|
E|-------3----3----------------3----3----------------------------|

Guitar 2 then plays Riff C

Guitar 1
HARMONICS********************************************************
e|-----------------------12---------------12-----------12--------|
B|----12-7----12-7-12-------7-12----12--7----12-7-12------7-12---|
G|---------------------------------------------------------------|
D|--7-------7---------7-----------7------------------7-----------|
A|---------------------------------------------------------------|
E|---------------------------------------------------------------|

HARMONICS********************************************************
e|-----------------------12---------------12-----------12--------|
B|----12-7----12-7-12-------7-12----12--7----12-7-12------7-12---|
G|----------7----------------------------------------------------|
D|--7----------------7-----------7------------------7------------|
A|---------------------------------------------------------------|
E|---------------------------------------------------------------|

SECOND CHORUS
Hey unfaithful...

Guitar 1: RIFF D (x4)

Guitar 2
e|--------------------------0-0-0-0-0-0-0-0-0-0-0-0--------------|
B|--0-0-0-0-0-0-0-0-0-0-0-0-0-0-0-0-0-0-0-0-0-0-0-0--------------|
G|--7-7-7-7-7-7-7-7-7-7-7-7-7-7-7-7-7-7-7-7-7-7-7-7--------------|
D|------7-7-7-7-7-7-7-7-7-7-7-7-7-7-7-7-7-7-7-7-7-7--------------|
A|---------------------------------------------------------------|
E|---------------------------------------------------------------|

e|--0----------|
B|--7----------|
G|--7----------|
D|--7--(x24)---|
A|--X----------|
E|--7----------|

Guitar 3
e|--5h7---7--7-7-9-9-9-9-9-9s10-10-10-10-10s12-12-12-12-12-12s14-|
B|--0---0----0-0-0-0-0-0-0-0--0--0--0--0--0--0--0--0--0--0--0--0-|
G|---------------------------------------------------------------|
D|---------------------------------------------------------------|
A|---------------------------------------------------------------|
E|---------------------------------------------------------------|

e|--14-----------|
B|---0-----------|
G|---------------|
D|-----(x23)-----|
A|---------------|
E|---------------|

VERSE 3
And Jesus, I'm ready to come...

Guitar 1
e|---------------------------------------------------------------|
B|---------------------------------------------------------------|
G|--14----14-14-14-14-14s9-9-9s11-11-11s14-----------------------|
D|---0-----0--0--0--0--0-0-0-0--0--0--0-------(x2)---------------|
A|---------------------------------------------------------------|
E|---------------------------------------------------------------|

Screamed: Home!
e|---------------------------------------------------------------|
B|---------------------------------------------------------------|
G|--14--------14s9-9-9-9-9-9-9-11-11-11-11-11-11-----------------|
D|---0--(x11)--0-0-0-0-0-0-0-0--0--0--0--0--0--0-----REPEAT------|
A|---------------------------------------------------------------|
E|---------------------------------------------------------------|

OUTRO
Unfaithful, hey ungraceful...

Guitar 1

sustain bend.....I sustain bend........I
e|---------------------------------------12-14-14-14-14-14-14-14-|
B|--14^*|
G|---------------------------------------------------------------|
D|---------------------------------------------------------------|
A|---------------------------------------------------------------|
E|---------------------------------------------------------------|

e|--17-17-17-17-17-------------------------------------14-14-14--|
B|-----------------15-15-15-15-15-15-15-15-15-15-15-15-----------|
G|---------------------------------------------------------------|
D|---------------------------------------------------------------|
A|---------------------------------------------------------------|
E|---------------------------------------------------------------|

e|--14-14-14-14-14-14-14-14-14-14-12-12-12-12-14-14-14-14-14-14--|
B|--------------------------------14-14-14-14-15-15-15-15-15-15--|
G|---------------------------------------------------------------|
D|---------------------------------------------------------------|
A|---------------------------------------------------------------|
E|---------------------------------------------------------------|
                                           Harm................I
e|--12-12-12-12-15-15-15-15-15-15-15-15-----12-----12--------12--|
B|--------------------------------------12-------7----12---7-----|
G|---------------------------------------------7---------7-------|
D|---------------------------------------------------------------|
A|---------------------------------------------------------------|
E|---------------------------------------------------------------|

Harm.......................I
e|---------12-5s-------12----------------------------------------|
B|--12---7------12---7----12-------------------------------------|
G|-----7-----------7---------------------------------------------|
D|---------------------------------------------------------------|
A|---------------------------------------------------------------|
E|---------------------------------------------------------------|

And thats it! Please rate, and be fair, this is my first tab!

Thanks,
AvngdSvnfold ;)

LEGEND:

h: Hammer-On
p: Pull-Off
^: Bend
Harm: Natural Harmonics
X: Muted String
REPEAT: Repeat Entire Bar
Composición de Aaron Marsh
20 vistas
    • ½ Tono
    • A
    • Bb
    • B
    • C
    • Db
    • D
    • Eb
    • E
    • F
    • F#
    • G
    • Ab
  • Agregar a la lista

    0 comentarios

    Ver todos los comentarios

    ¿Lograste tocar?

    0 Tocaron 0 Aún no

    ¡Graba un video tocando Some Seek Forgiveness Others Escape y envíanoslo!

    00:00 / 00:00
    Outros vídeos desta música
    Repetir Calidad Automático
    Outros vídeos desta música
    00:00 / 00:00
    Automático
    OK