Cifra Club

Some Will Seek Forgiveness Others Seek Escape

Underoath

Tab de bajo: Principal
Verse
G[---------------------------------]
D[---------------------------------]
A[---------------------------------]
D[-4~---------------0~-------------]

chorus
G[-------------------------]
D[-------------------------]
A[-------------------------]
D[-5~----7~----9~----0~----]

The first half of the song let the notes ring.

Build up
G[-----------------------------------------------------------------------]
D[-----------------------------------------------------------------------]
A[-----------------------------------------------------------------------]
D[-5--5--5--5--5--5--7--7--7--7--7--7--9--9--9--9--9--9--0--0--0--0--0—0-]

The pause between the build up.
G[--------------------]
D[--------------------]
A[--------------------]
D[-5~-----9~----7~----]

Last part. x 4
G[--------------------------------------------------------]
D[--------------------------------------------------------]
A[--------------------------------------------------------]
D[-5555555555555555-777777777777-999999999999-000000000000]

End with
G[-------]
D[-------]
A[-------]
D[5~-----]
00:00 / 00:00
Otros videos de esta canción
Repetir
Otros videos de esta canción
Composición de Aaron Marsh
23 vistas

0 comentarios

Ver todos los comentarios

¿Lograste tocar?

0 Tocaron 0 Aún no

¡Graba un video tocando Some Will Seek Forgiveness Others Seek Escape y envíanoslo!

00:00 / 00:00
OK