Cifra Club

The Impact Of Reason

Underoath

Tab de bajo: Principal
Já pensou em usar uma coleção de roupas do Cifra Club? Responda as perguntas abaixo e nos ajude nessa missão! →
G[----------------------------------]
D[----------------------------------]
A[-0000000000000000-----------------]
D[-----------------5555555555555555-]

x 3
G[--------------------------------------------------------------]
D[--------------------------------------------------------------]
A[-22222222222222222222222222220000000000000000-----------------]
D[---------------------------------------------5555555555555555-]

x4
G[----------]
D[----------]
A[----------]
D[-9---9-99-]

G[-------------]
D[-------------]
A[-------------]
D[-9999-2-4444-]


G[--------------------------------------------------------------------------]
D[--------------------------------------------------------------------------]
A[--------------------------------------------------------------------------]
D[-5---5----55----5----5-7---7----77----7-9----9---99----9-4----4---44---4--]            
                            x4

(pause)


G[--------------------------------------------------------------]
D[--------------------------------------------------------------]
A[-22222222222222222222222222220000000000000000-----------------]
D[---------------------------------------------5555555555555555-]   x2

G[------------------------]
D[------------------------]
A[-2~----0~---------------]
D[--------------2~-----5~-]  x3

G[----------------------------------]
D[----------------------------------]
A[-2222222200000000-----------------]
D[-----------------2222222255555555-]   x2

listen for rhythm
G[------------------------------------------------------------------------]
D[------------------------------------------------------------------------]
A[------------------------------------------------------------------------]
D[-5---5----55---5----5-7----7---77----7-9----9---99----9-4---4----44--4--]              
                     x1

G[------------------------------------------------------------------]
D[------------------------------------------------------------------]
A[------------------------------------------------------------------]
D[-5555555555555555777777777777777799999999999999994444444444444444-] x1

listen for rhythm
G[-------------------------------------------------------------------------]
D[-------------------------------------------------------------------------]
A[-------------------------------------------------------------------------]
D[-5----5----55----5----5-7----7---77---7-9---9---99----9-4----4----44--4--]             
                         x2

end on
G[---------]
D[---------]
A[---------]
D[---5~----]
Composición de Underøath
17 vistas

0 comentarios

Ver todos los comentarios

¿Lograste tocar?

0 Tocaron 0 Aún no

¡Graba un video tocando The Impact Of Reason y envíanoslo!

00:00 / 00:00
Outros vídeos desta música
Repetir Calidad Automático
Outros vídeos desta música
00:00 / 00:00
Automático
OK