Cifra Club

There Could Be Nothing After This

Underoath

Tab de bajo: Principal
Já pensou em usar uma coleção de roupas do Cifra Club? Responda as perguntas abaixo e nos ajude nessa missão! →
Tuning: Drop D


*Listen for timing.
|--------------------------------------|
|--------------------------------------|
|--------------------------3--3--3-3-3-|
|-0-0-000-0-00-000-5-5-555-------------|x2

|--------------------------------------|
|--------------------------------------|
|--------------------------3--3--3-3-3-|
|-0-0-000-0-00-000-5-5-555-------------|

|---------------------|
|---------------------|
|---------------------|
|-0-0-000-0-00-000h5x-|


|-------------------------------------|
|-------------------------------------|
|-00000000-00000000-------------------|
|-------------------33333333-55555555-|

|-------------------------------------|
|-------------------------------------|
|-00000000-00000000-------------------|
|-------------------33333333-22222222-|


|-------------------------------------|
|-------------------------------------|
|-11111111-11111111-00000000----------|
|----------------------------55555555-|x4

Pause.

|-------------------------------|
|-------------------------------|
|------1-------0-------1--0-1-0-|
|-0-0-----0-0-----0-0-----------|x2


Drums.


|-------------------------------|
|-------------------------------|
|------1-------0-------1--0-1-0-|
|-0-0-----0-0-----0-0-----------|x4

|---------------|
|---------------|
|---------------|
|-5~------------|


|---------------------------------|
|---------------------------------|
|-1-1-1-1-1-1-1-1-0-0-0-0---------|
|-------------------------5-5-5-5-|
                                     x4
|---------------------------------|
|---------------------------------|
|-1-1-1-1-1-1-1-1-1-1-1-1---------|
|-------------------------5-5-5-5-|


|------------------------|
|------------------------|
|------------------------|
|-0x---------------------|
Composición de Aaron Gillespie / Spencer Chamberlain / Underøath
14 vistas

0 comentarios

Ver todos los comentarios

¿Lograste tocar?

0 Tocaron 0 Aún no

¡Graba un video tocando There Could Be Nothing After This y envíanoslo!

00:00 / 00:00
Outros vídeos desta música
Repetir Calidad Automático
Outros vídeos desta música
00:00 / 00:00
Automático
OK