Cifra Club

To Whom It May Concern

Underoath

Cifrado: Principal (guitarra y guitarra eléctrica)
Já pensou em usar uma coleção de roupas do Cifra Club? Responda as perguntas abaixo e nos ajude nessa missão! →
tono: F
Tabbed by: Vijay Patel
Email:

Tuning: Drop-D down half a step

This tab is just part of the song, considering the whole song is not yet available. Have Fun!



Intro/Verse- 00:03- 00:20
Both Guitars  (x4)

e|----------------------------------------------0-----------------------------|
B|----------------------------------------------6-----------------------------|
G|----------9-----------9-----------9-----------------------------------------|
D|-7--0--5--x--7--0--5--x--7--0--5--x--7--0--5--------------------------------|
A|-7--0--5--7--7--0--5--7--7--0--5--7--7--0--5--------------------------------|
D|-7--0--5-----7--0--5-----7--0--5-----7--0--5--------------------------------|


00:20- 00:29
Both Guitars (x8)

e|---------------------------------------------------------------------------|
B|---------------------------------------------------------------------------|
G|---------------------------------------------------------------------------|
D|--7-0h5p0------------------------------------------------------------------|
A|--7-0h5p0------------------------------------------------------------------|
D|--7-0h5p0------------------------------------------------------------------|



Pre Chorus- 00:29- 00:39
Guitar 1- let the opens ring out, listen to the song for how many times to play the chords/notes

e|--------0------------------------------------------------------------------|
B|--------5------------------------------------------------------------------|
G|------------14--14b--------------------------------------------------------|
D|--0------------------------------------------------------------------------|
A|--0------------------------------------------------------------------------|
D|--0------------------------------------------------------------------------|

Guitar 2- listen to the song for how many times to play the chords/notes

e|--------0---0---0----------------------------------------------------------|
B|--------8---10--15b--------------------------------------------------------|
G|---------------------------------------------------------------------------|
D|---------------------------------------------------------------------------|
A|---------------------------------------------------------------------------|
D|---------------------------------------------------------------------------|



Chorus- 00:39- 01:01
Guitar 1 (x2)

e|------0------------------------0-----------------------0-----------------------0-------------|
B|------6------------------------6-----------------------6-----------------------6-------------|
G|-----------------------------------------------------------------------------------------8-8-|
D|-----------7bp0--------------------7bp0--------------------7bp0--------------------7bp0--x-x-|
A|--0------------7bp0-8h10---0-----------7bp0-8h10---0-----------7bp0-8h10---0-------------6-6-|
D|--0-0--0-8-----------------0-0--0-8----------------0-0--0-8----------------0-0--0-8----------|

Guitar 2 (x2)

e|------0------------------------0-----------------------0-----------------------0-------------|
B|------6------------------------6-----------------------6-----------------------6-------------|
G|-----------------------------------------------------------------------------------------7-7-|
D|-----------7bp0--------------------7bp0--------------------7bp0--------------------7bp0--x-x-|
A|--0------------7bp0-8h10---0-----------7bp0-8h10---0-----------7bp0-8h10---0-------------5-5-|
D|--0-0--0-8-----------------0-0--0-8----------------0-0--0-8----------------0-0--0-8----------|



Verse- 01:01- 01:22
Guitar 1- listen to the song for how many times to play the chords

e|---------------------------------------------------------------------------|
B|---------------------------------------------------------------------------|
G|--8------------------------------------------------------------------------|
D|--x------------------------------------------------------------------------|
A|--6------------------------------------------------------------------------|
D|---------------------------------------------------------------------------|

Guitar 2- listen to the song for how many times to play the chords 

e|---------------------------------------------------------------------------|
B|---------------------------------------------------------------------------|
G|--7------------------------------------------------------------------------|
D|--x------------------------------------------------------------------------|
A|--5------------------------------------------------------------------------|
D|---------------------------------------------------------------------------|



| /  slide up
| \  slide down
| h  hammer-on
| p  pull-off
| ~  vibrato
| +  harmonic
| x  Mute note
===============================================================================
Composición de Underøath
14 vistas
    • ½ Tono
    • A
    • Bb
    • B
    • C
    • Db
    • D
    • Eb
    • E
    • F
    • F#
    • G
    • Ab
  • Agregar a la lista

    0 comentarios

    Ver todos los comentarios

    ¿Lograste tocar?

    0 Tocaron 0 Aún no

    ¡Graba un video tocando To Whom It May Concern y envíanoslo!

    00:00 / 00:00
    Outros vídeos desta música
    Repetir Calidad Automático
    Outros vídeos desta música
    00:00 / 00:00
    Automático
    OK