Cifra Club

To Whom It May Concern

Underoath

Tab de bajo: Principal
Já pensou em usar uma coleção de roupas do Cifra Club? Responda as perguntas abaixo e nos ajude nessa missão! →
Tabbed By : dvanwyk
e-mail: *

Tuning:Drop D
 Intro
G|-------------------------------------------|
D|-------------------------------------------|
A|5~--3h5~---5~--3h5~---5~--3h5~---5~--3h5~--|
D|-------------------------------------------|
 Start this part at 0.25(x4)
G|-----------------------|
D|-----------------------|
A|5~-5/10~--3~-3/10~-7~--|
D|-----------------------|
 Verse(When Aaron says "so hold your head high and know it's not...")
G|-----------------------------------------------------------------|
D|--------------------------3--------------------------------3-----|
A|5-5-5~--3-3-3~--5-5-5~-3h5--553--1-1-1~--3-3-3~--5-5-5~-3h5-553--|
D|-----------------------------------------------------------------|

G|----------------------------------------------------------------|
D|--------------------------3-3h5555--------------------------7~--|
A|1-1-1~--3-3-3~--5-5-5~-3h5----------1-1-1~-3-3-3~-5-5-5~--------|
D|----------------------------------------------------------------|

G|---------------5~-------------3~-----5~----------------------|
D|-----------------------------------------3-------------------|
A|1-1-1~--3-3-3-----5-5-5~--1-1----3-3----5-5-3h555-3h555555~--|
D|-------------------------------------------------------------|
   Bridge x4(Come in at 2.54)
G|---------------------------------------------------------------------------------|
D|---------------------------------------------------------------------------------|
A|---------------------------------------------------------------------------------|
D|7-3-0~---------------------------------------------------------------------------|
 x4
G|---------------------------------------------------------------------------------|
D|---------------------------------------------------------------------------------|
A|---------------------------------------------------------------------------------|
D|xx0~-----------------------------------------------------------------------------|
 x2 (Then at 3.44 do this)
G|-------------------------------------------|
D|-------------------------------------------|
A|-------------------------------------------|
D|7-7-7-7-7-7-7-7-11-11-11-3-3-3-2-2-2-xx0~--|
 x2 (Note:The second time you do this let the last note ring)
G|------------------------------------------|
D|------------------------------------------|
A|------------------------------------------|
D|77777777-111111-333222-0000000000000000~--|

 Outro x6(Start at 4.34)
G|---------------------------------------------------------------------------------|
D|---------------------------------------------------------------------------------|
A|5~----1~-------------------------------------------------------------------------|
D|---------5~----------------------------------------------------------------------|
 End off with(at 5.50)
G|-------------------------------------------------------------------------------|
D|-------------------------------------------------------------------------------|
A|5~-----------------------------------------------------------------------------|
D|-------------------------------------------------------------------------------|


| /  slide up
| \  slide down
| h  hammer-on
| p  pull-off
| ~  vibrato
| +  harmonic
| x  Mute note
===============================================================================
Composición de Underøath
26 vistas

0 comentarios

Ver todos los comentarios

¿Lograste tocar?

0 Tocaron 0 Aún no

¡Graba un video tocando To Whom It May Concern y envíanoslo!

00:00 / 00:00
Outros vídeos desta música
Repetir Calidad Automático
Outros vídeos desta música
00:00 / 00:00
Automático
OK