Cifra Club

Walking Away

Underoath

Cifrado: Principal (guitarra y guitarra eléctrica)
Já pensou em usar uma coleção de roupas do Cifra Club? Responda as perguntas abaixo e nos ajude nessa missão! →
tono: Db
E|---------------------------------------------|
B|---------------------------------------------|
G|---------------------------------------------|
D|---3---3---3---3---3----4---4---4---4---4-3--|
A|--1---1---1---1---1-1--1---1---1---1---1-----|
D|-1---1---1---1---1----1---1---1---1---1------|

E|-----------------------------------|
B|-----------------------------------|
G|-----------------------------------|
D|-11111111111111114444444444444444--|
A|-11111111111111114444444444444444--|
D|-11111111111111114444444444444444--|

0:38
E|---------------------------------|
B|---------------------------------|
G|---------10---------------13-----| 
D|-8---------------11--------------|
A|---------------------------------|
D|---------------------------------|

E|-------------------------|
B|-------------------------|
G|-------------------------|
D|-0-1-0-4-0-3-0-1-0-6-0-4-|
A|-------------------------|
D|-------------------------|
                         

E|-------------------------|
B|-------------------------|
G|-------------------------|
D|-0-1-0-4-0-3-0-1-0-6-0-4-|
A|-0-1-0-4-0-3-0-1-0-6-0-4-|
D|-0-1-0-4-0-3-0-1-0-6-0-4-|
                         

E|--------------------------------------------------|
B|--------------------------------------------------|
G|--------------------------------------------------|
D|-------1-----4-----3-----------1-------8\-----6\--|
A|-------1-----4-----3-----------1------------------|
D|-0000001-----4-----3-----0000001---0-0----0-0-----|

E|-----------------------------------|
B|-----------------------------------|
G|-----------------------------------|
D|-000010000300005000000100-6----3---|
A|--------------------------6----3---|
D|--------------------------6----3---|

E|----------------------------------------------|
B|----------------------------------------------|
G|----------------------------------------------|
D|--------------------------------------------6-|
A|--------------------------------------------6-|
D|-111000666000111000666000111000666000111000-6-|
                                            

E|----------------------------------|---|
B|----------------------------------|---|
G|----------------------------------|---|
D|-000010000300005000000100-6----3--|-0-|
A|--------------------------6----3--|-0-|
D|--------------------------6----3--|-0-|

E|---------------------------|
B|-------44443333------------|
G|-333333------------6666----|
D|---------------4444------0-|
A|-------------------------0-|
D|-------------------------0-|

E|----------------------------------------------|
B|----------------------------------------------|
G|----------------------------------------------|
D|-8888888p7h8p7777777h8p7\4444444h5p4h5555555--|
A|----------------------------------------------|
D|----------------------------------------------|

|   palm mute
| \ slide down
Compositor não encontrado.
Colaboración y revisión:
  • Rafael
17 vistas
    • ½ Tono
    • A
    • Bb
    • B
    • C
    • Db
    • D
    • Eb
    • E
    • F
    • F#
    • G
    • Ab
  • Agregar a la lista

    0 comentarios

    Ver todos los comentarios

    ¿Lograste tocar?

    0 Tocaron 0 Aún no

    ¡Graba un video tocando Walking Away y envíanoslo!

    00:00 / 00:00
    Outros vídeos desta música
    Repetir Calidad Automático
    Outros vídeos desta música
    00:00 / 00:00
    Automático
    OK