Cifra Club

Writing On The Walls

Underoath

Cifrado: Principal (guitarra y guitarra eléctrica)
Já pensou em usar uma coleção de roupas do Cifra Club? Responda as perguntas abaixo e nos ajude nessa missão! →
tono: F
  E E E E E E E E   E E E E E E E E   E E E E E E E E   E E E E E E E E
|-8-8-8-8-8-8-8-8-|-8-8-8-8-8-8-8-8-|-8-8-8-8-8-8-8-8-|-8-8-8-8-8-8-8---|
|-6-6-6-6-6-6-6-6-|-6-6-6-6-6-6-6-6-|-6-6-6-6-6-6-6-6-|-6-6-6-6-6-6-6---|
|-x-x-x-x-x-x-x-x-|-x-x-x-x-x-x-x-x-|-x-x-x-x-x-x-x-x-|-x-x-x-x-x-x-x-0-|
|-0-0-0-0-0-0-0-0-|-0-0-0-0-0-0-0-0-|-x-x-x-x-x-x-x-x-|-x-x-x-x-x-x-x-0-|
|-----------------|-----------------|-x-x-x-x-x-x-x-x-|-x-x-x-x-x-x-x-0-|
|-----------------|-----------------|-5-5-5-5-5-5-5-5-|-5-5-5-5-7-7-7---|

  Gm/Bb                           N.C.Csus4
   E E E E E E E E   E E E E E E E E
|-----------------|-----------------|
|-8-8-8-8-8-8-8-8-|-8-8-8-8-8-8-8---|
|-7-7-7-7-7-7-7-7-|-7-7-7-7-7-7-7-0-|
|-x-x-x-x-x-x-x-x-|-x-x-x-x-x-x-x-0-|
|-x-x-x-x-x-x-x-x-|-x-x-x-x-x-x-x-0-|
|-8-8-8-8-8-8-8-8-|-8-8-8-8-8-8-8---|

    E  E  E  E  E  E  E  E    E  E  E  E  E  E  E  E
|-------------------------|-------------------------|
|-13-13-13-13-13-13-13-13-|-13-13-13-13-13-13-13-13-|
|-10-10-10-10-10-10-10-10-|-10-10-10-10-10-10-10-10-|
|--x--x--x--x--x--x--x--x-|--x--x--x--x--x--x--x--x-|
|--x--x--x--x--x--x--x--x-|--x--x--x--x--x--x--x--x-|
|-10-10-10-10-10-10-10-10-|-10-10-10-10-10-10-10-10-|

  F5/D                                F5/G                      F/A   N.C.
   E E E E E E E E   E E E E E E E E   E E E E E E E E   E E E E E E E E
|-8-8-8-8-8-8-8-8-|-8-8-8-8-8-8-8-8-|-8-8-8-8-8-8-8-8-|-8-8-8-8-8-8-8---|
|-6-6-6-6-6-6-6-6-|-6-6-6-6-6-6-6-6-|-6-6-6-6-6-6-6-6-|-6-6-6-6-6-6-6---|
|-x-x-x-x-x-x-x-x-|-x-x-x-x-x-x-x-x-|-x-x-x-x-x-x-x-x-|-x-x-x-x-x-x-x-0-|
|-0-0-0-0-0-0-0-0-|-0-0-0-0-0-0-0-0-|-x-x-x-x-x-x-x-x-|-x-x-x-x-x-x-x-0-|
|-----------------|-----------------|-x-x-x-x-x-x-x-x-|-x-x-x-x-x-x-x-0-|
|-----------------|-----------------|-5-5-5-5-5-5-5-5-|-5-5-5-5-7-7-7---|
|
| Gtr III
| E E E E E E E E   E E E E E E E E   E E E E E E E E   E E E E E E E E
|-----------------|-----------------|-----------------|-----------------|
|-----------------|-----------------|-----------------|-----------------|
|-----------------|-----------------|-----------------|-----------------|
|-3-3-3-3-3-3-3-3-|-3-3-3-3-3-3-3-3-|-3-3-3-3-3-3-3-3-|-3-3-3-3-3-3-3-3-|
|-----------------|-----------------|-----------------|-----------------|
|-3-3-3-3-3-3-3-3-|-3-3-3-3-3-3-3-3-|-3-3-3-3-3-3-3-3-|-3-3-3-3-3-3-3-3-|

  Gm/Bb                           N.C.Csus4
   E E E E E E E E   E E E E E E E E
|-----------------|-----------------|
|-8-8-8-8-8-8-8-8-|-8-8-8-8-8-8-8---|
|-7-7-7-7-7-7-7-7-|-7-7-7-7-7-7-7-0-|
|-x-x-x-x-x-x-x-x-|-x-x-x-x-x-x-x-0-|
|-x-x-x-x-x-x-x-x-|-x-x-x-x-x-x-x-0-|
|-8-8-8-8-8-8-8-8-|-8-8-8-8-8-8-8---|
|
| E E E E E E E E   E E E E E E E E
|-----------------|-----------------|
|-----------------|-----------------|
|-----------------|-----------------|
|-3-3-3-3-3-3-3-3-|-3-3-3-3-3-3-3-3-|
|-----------------|-----------------|
|-3-3-3-3-3-3-3-3-|-3-3-3-3-3-3-3-3-|
|
| Gtr II
| W                 W
|-----------------|-----------------|
|-----------------|-----------------|
|-----------------|-----------------|
|-----------------|-----------------|
|-----------------|-----------------|
|-----------------|-----------------|

    E  E  E  E  E  E  E  E     E   E  E  E  E  E  E  E
|-------------------------|---------------------------|
|-13-13-13-13-13-13-13-13-|--13--13-13-13-13-13-13-13-|
|-10-10-10-10-10-10-10-10-|--10--10-10-10-10-10-10-10-|
|--x--x--x--x--x--x--x--x-|---x---x--x--x--x--x--x--x-|
|--x--x--x--x--x--x--x--x-|---x---x--x--x--x--x--x--x-|
|-10-10-10-10-10-10-10-10-|--10--10-10-10-10-10-10-10-|
|
|  E  E  E  E  E  E  E  E     E   E  E  E  E  E  E  E
|-------------------------|---------------------------|
|-------------------------|---------------------------|
|-------------------------|---------------------------|
|--3--3--3--3--3--3--3--3-|---3---3--3--3--3--3--3--3-|
|-------------------------|---------------------------|
|--3--3--3--3--3--3--3--3-|---3---3--3--3--3--3--3--3-|
|
|  <
|  W                         +W
|-------------------------|---------------------------|
|-------------------------|---------------------------|
|-------------------------|---------------------------|
|-10----------------------|-(10)----------------------|
|-10----------------------|-(10)----------------------|
|-10----------------------|-(10)----------------------|


   Verse I
    F5/D
    Gtr I
      E  E  E  E  E  E E  E   E  E E  E E  E E  E
||-------------------------|----------------------|
||o-10----10----10----8----|-8----8----8----8-----|
||-----10----10----10---10-|---10---10---10---10/-|
||-------------------------|----------------------|
||o------------------------|----------------------|
||-------------------------|----------------------|
|
|   Gtr II
|    E  E  E  E  E  E E  E   E  E E  E E  E E  E
||---8--8--8--8--8--8-8--8-|-8--8-8--8-8--8-8--8--|
||o--6--6--6--6--6--6-6--6-|-6--6-6--6-6--6-6--6--|
||---x--x--x--x--x--x-x--x-|-x--x-x--x-x--x-x--x--|
||---0--0--0--0--0--0-0--0-|-0--0-0--0-0--0-0--0--|
||o------------------------|----------------------|
||-------------------------|----------------------|


  F5/G                                F/A      N.C.
    E  E  E  Q    E  E  E    E  Q    E  E  E  E  E
|----------12------------|----12--------------------|
|----15---------15----15-|---------15----15----15/--|
|-17----17---------17----|-17---------17----17------|
|------------------------|--------------------------|
|------------------------|--------------------------|
|------------------------|--------------------------|
|
|  E  E  E  E E  E  E  E    E  E E  E  E  E  E  E
|--8--8--8--8-8--8--8--8-|--8--8-8--8--8--8--8------|
|--6--6--6--6-6--6--6--6-|--6--6-6--6--6--6--6------|
|--x--x--x--x-x--x--x--x-|--x--x-x--x--x--x--x--0---|
|--x--x--x--x-x--x--x--x-|--x--x-x--x--x--x--x--0---|
|--x--x--x--x-x--x--x--x-|--x--x-x--x--x--x--x--0---|
|--5--5--5--5-5--5--5--5-|--5--5-5--5--7--7--7------|


  Gm/Bb                                        N.C.
    E  E  E  Q    E  E  E    E  Q    E  E  E  E  E
|----------20------------|----17------------------|
|----18---------18----18-|---------18----18----18-|
|-19----19---------19----|-19---------19----19----|
|------------------------|------------------------|
|------------------------|------------------------|
|------------------------|------------------------|
|
|  E  E  E  E E  E  E  E    E  E E  E  E  E  E  E
|------------------------|------------------------|
|--8--8--8--8-8--8--8--8-|--8--8-8--8--8--8--8----|
|--7--7--7--7-7--7--7--7-|--7--7-7--7--7--7--7--0-|
|--x--x--x--x-x--x--x--x-|--x--x-x--x--x--x--x--0-|
|--x--x--x--x-x--x--x--x-|--x--x-x--x--x--x--x--0-|
|--8--8--8--8-8--8--8--8-|--8--8-8--8--8--8--8----|


  Csus4
   E  E  E  Q     E  E  E    E  Q     E  H
|----------15-------------|----15---------------------||
|----18----------18----18-|----------18--------------o||
|-19----19----------19----|-19----------19\-----------||
|-------------------------|---------------------------||
|-------------------------|--------------------------o||
|-------------------------|---------------------------||
|
|  E  E  E  E  E  E  E  E    E  E  E  E  E   E  E  E
|-------------------------|---------------------------||
|-13-13-13-13-13-13-13-13-|-13-13-13-13-13--13-13-13-o||
|-10-10-10-10-10-10-10-10-|-10-10-10-10-10--10-10-10--||
|--x--x--x--x--x--x--x--x-|--x--x--x--x--x---x--x--x--||
|--x--x--x--x--x--x--x--x-|--x--x--x--x--x---x--x--x-o||
|-10-10-10-10-10-10-10-10-|-10-10-10-10-10--10-10-10--||


   Pre-Chorus
    Bb5
                      >
    Q.     Q.   Q    +W
||-----------------|------------------|
||o----------------|------------------|
||--7----/10----9--|-(9)--------------|
||-----------------|------------------|
||o-5-----/8----7--|-(7)--------------|
||-----------------|------------------|
|
|   Q.     Q.   Q    +Q   E E E E E E
||-----------------|------0-0-0-0-0-0-|
||o----------------|------6-6-6-6-6-6-|
||-----------------|------------------|
||--8------8----8--|-(8)--------------|
||o-8------8----8--|-(8)--------------|
||--8------8----8--|-(8)--------------|


  +W                          +W
|---------------------------|--------------------|
|---------------------------|--------------------|
|-(9)-----------------------|-(9)----------------|
|---------------------------|--------------------|
|-(7)-----------------------|-(7)----------------|
|---------------------------|--------------------|
|
|  E    E  E  E  E  E  E  E    E  E E E E E E E
|--0----0--0--0--0--0--0--0-|--0--0-0-0-0-0-0-0--|
|--6--/10-10-10-10-10-10-10-|-10--8-8-8-8-8-8-8--|
|---------------------------|--------------------|
|---------------------------|--------------------|
|---------------------------|--------------------|
|---------------------------|--------------------|


  G5
                  >
  Q.   Q.   Q    +W
|--------------|------------------|
|--------------|------------------|
|-7\---2----5--|-(5)--------------|
|--------------|------------------|
|-5\---0----3--|-(3)--------------|
|--------------|------------------|
|
| Q.   Q.   Q    +Q   E E E E E E
|--------------|------0-0-0-0-0-0-|
|--------------|------6-6-6-6-6-6-|
|--------------|------------------|
|-5----5----5--|-(5)--------------|
|-5----5----5--|-(5)--------------|
|-5----5----5--|-(5)--------------|

  +W                  +E    H..
|-------------------|------------------------||
|-------------------|-----------------------o||
|-(5)---------------|-(5)-/12----------------||
|-------------------|------------------------||
|-(3)---------------|-(3)-/10---------------o||
|-------------------|------------------------||
|
|  E  E E E E E E E    E    E   E E E E E E
|--0--0-0-0-0-0-0-0-|--0----0---0-0-0-0-0-0--||
|--6\-1-1-1-1-1-1-1-|--1---/8---8-8-8-8-8-8-o||
|-------------------|------------------------||
|-------------------|------------------------||
|-------------------|-----------------------o||
|-------------------|------------------------||


   Chorus
    N.C.
     E E E E E E E E   E E E E E E E E
||------------------|-----------------|
||o-----------------|-----------------|
||--7-7-7-7-7-7-7-7-|-7-7-7-7-7-7-7-7-|
||------------------|-----------------|
||o-5-5-5-5-5-5-5-5-|-5-5-5-5-5-5-5-5-|
||------------------|-----------------|
|
|   E E E E E E E E   E E E E E E E E
||------------0---0-|---0---0---0---0-|
||o-3---3---3---6---|-6---6---6---6---|
||----2---2---------|-----------------|
||------------------|-----------------|
||o-----------------|-----------------|
||------------------|-----------------|


   E  E E E E E E   E    E  E  E  E  E  E  E  E
|--------------------|--------------------------|
|--------------------|--------------------------|
|-7-/9-9-9-9-9-9-/12-|-12-12-12-12-12-12-12-12--|
|--------------------|--------------------------|
|-5-/7-7-7-7-7-7-/10-|-10-10-10-10-10-10-10-10--|
|--------------------|--------------------------|
|
| E  E E E E E E   E    E  E  E  E  E  E  E  E
|----0---0---0-----0-|-----0-----0-----0-----0--|
|-6----6---6---6-----|--6-----6-----6-----6-----|
|--------------------|--------------------------|
|--------------------|--------------------------|
|--------------------|--------------------------|
|--------------------|--------------------------|


  Bb5                                                   G5
   E E E E E E E E   E E E E E E E E   E E E E E E E E   E E E E E E E E
|-----------------|-----------------|-----------------|------------------||
|-----------------|-----------------|-----------------|-----------------o||
|-----------------|-----------------|-----------------|------------------||
|-8-8-8-8-8-8-8-8-|-8-8-8-8-8-8-8-8-|-8-8-8-8-8-8-8-8-|-5-5-5-5-5-5-5-5--||
|-8-8-8-8-8-8-8-8-|-8-8-8-8-8-8-8-8-|-8-8-8-8-8-8-8-8-|-5-5-5-5-5-5-5-5-o||
|-8-8-8-8-8-8-8-8-|-8-8-8-8-8-8-8-8-|-8-8-8-8-8-8-8-8-|-5-5-5-5-5-5-5-5--||
|
| E E E E E E E E   E E E E E E E E   E E E E E E E E   E E E E E E E E
|-5---5---5---5---|-5---5---5---5---|-5---5---5---5-0-|---0---0---0---0--||
|---3---3---3---3-|---3---3---3---3-|---3---3---3-----|-6---6---6---6---o||
|-----------------|-----------------|-----------------|------------------||
|-----------------|-----------------|-----------------|------------------||
|-----------------|-----------------|-----------------|-----------------o||
|-----------------|-----------------|-----------------|------------------||


 Breakdown
  D5        N.C.
  E E E E H         W                 W                 W
|-----------------|-----------------|-----------------|---------------|
|-----------------|-----------------|-----------------|---------------|
|-----------------|-----------------|-----------------|---------------|
|-0-0---0---------|-----------------|-----------------|---------------|
|-0-0---0---------|-----------------|-----------------|---------------|
|-0-0---0---------|-----------------|-----------------|---------------|
|
|                                                       |----3----|
| E E E E E E E E   E E E E E E E E   E E E E E E E E   Q Q Q Q Q Q
|-----------------|-----------------|-----------------|---------------|
|-----------------|-----------------|-----------------|---------------|
|-----------------|-----------------|-----------------|---------------|
|-0-0---0---3---3-|---3---3---3---3-|---3---3---3---3-|---3-3-3-3-3---|
|-0-0---0-----7---|-7---7---7---7---|-7---7---7---7---|-5-5-5-5-5-5---|
|-0-0---0---------|-----------------|-----------------|---------------|

  D5        N.C.
   E E E E E  E  E  E    E  E  E  E  E   E  E   E
|-----------17-------|-13-------13--------13-----|
|--------------15----|----15-------15---------15-|
|-----------------17-|-------17--------17--------|
|-0-0---0------------|---------------------------|
|-0-0---0------------|---------------------------|
|-0-0---0------------|---------------------------|
|
| E E E E H             E  E  E  E  Q.         E
|--------------------|---------------------------|
|--------------------|---------------------------|
|--------------------|---------------------------|
|-0-0---0------------|--------x------------------|
|-0-0---0------------|-----x--------3--------/12-|
|-0-0---0------------|--x--------x---------------|

    E   E  E   E  E   E  E  E     E  E   E  E   Q      +Q
|------13--------13--------13-|---------13------------------|
|---------15---------15-------|--15--------15--15-----(15)--|
|--17---------17--------17----|-----17---------17b19--(17)--|
|-----------------------------|-----------------------------|
|-----------------------------|-----------------------------|
|-----------------------------|-----------------------------|
|
|  +Q      Q.         Q     E     E  E   E  E   H
|-----------------------------|-----------------------------|
|-----------------------------|-----------------------------|
|-----------------------------|-----------------------------|
|-----------------------------|-----------------------------|
|-(12)-----3--------/12-----3-|-/12--3-/12--3-/12-----------|
|-----------------------------|-----------------------------|


     E E E E E E E E   E E E E E E E E   E E E E E E E E   E E E E E E E E   4x
||-----------------|-----------------|-----------------|------------------||
||o----------6---6-|---6---6---6---6-|---6---6---6---6-|---8---8---8---8-o||
||-------------9---|-9---9---9---9---|-9---9---9---9---|-7---7---7---7----||
||--0-0---0--------|-----------------|-----------------|------------------||
||o-0-0---0--------|-----------------|-----------------|-----------------o||
||--0-0---0--------|-----------------|-----------------|------------------||
|
|   E E E E E E E E   E E E E E E E E   E E E E E E E E   E E E E E E E E   4x
||------------------|-----------------|-----------------|-----------------||
||o-----------------|-----------------|-----------------|----------------o||
||------------------|-----------------|-----------------|-----------------||
||--0-0---0---3---3-|---3---3---3---3-|---3---3---3---3-|---3---3---3---3-||
||o-0-0---0-----7---|-7---7---7---7---|-7---7---7---7---|-5---5---5---5--o||
||--0-0---0---------|-----------------|-----------------|-----------------||


                Drumroll   Bridge
  D5                        Bb5
  E E E E H      W          Q.   Q.   Q    +W
|--------------|----------|--------------|--------|
|--------------|----------|--------------|--------|
|--------------|----------|--------------|--------|
|-0-0---0------|----------|-8----8----8--|-(8)----|
|-0-0---0------|----------|-8----8----8--|-(8)----|
|-0-0---0------|----------|-8----8----8--|-(8)----|
|
| E E E E H      W          Q.   Q.   Q    +W
|--------------|----------|--------------|--------|
|--------------|----------|--------------|--------|
|--------------|----------|--------------|--------|
|-0-0---0------|----------|-8----8----8--|-(8)----|
|-0-0---0------|----------|-8----8----8--|-(8)----|
|-0-0---0------|----------|-8----8----8--|-(8)----|


  G5                          D5
  Q.   Q.   Q    +W           Q   E Q.   Q    +E  Q.   Q  Q
|--------------|------------|------------5--|-(5)-3----0-----|
|--------------|------------|---------------|----------6--3--|
|--------------|------------|---------------|----------------|
|-5----5----5--|-(5)--------|-0-------------|----------------|
|-5----5----5--|-(5)--------|-0---3-5-------|----------------|
|-5----5----5--|-(5)--------|-0-------------|----------------|
|
| Q.   Q.   Q    +W           Q.    Q.   Q    +W
|--------------|------------|---------------|----------------|
|--------------|------------|---------------|----------------|
|--------------|------------|---------------|----------------|
|-5----5----5--|-(5)--------|-0-----0----0--|-(0)------------|
|-5----5----5--|-(5)--------|-0-----0----0--|-(0)------------|
|-5----5----5--|-(5)--------|-0-----0----0--|-(0)------------|


  D5                          Bb5
  Q.   Q.   Q     W           Q.   Q.   Q    +W
|--------------|------------|--------------|--------|
|-3----5----3s=|==8---------|--------------|--------|
|--------------|------------|--------------|--------|
|--------------|------------|-8----8----8--|-(8)----|
|--------------|------------|-8----8----8--|-(8)----|
|--------------|------------|-8----8----8--|-(8)----|
|
| Q.   Q.   Q    +W           Q.   Q.   Q    +W
|--------------|------------|--------------|--------|
|--------------|------------|--------------|--------|
|--------------|------------|--------------|--------|
|-0----0----0--|-(0)--------|-8----8----8--|-(8)----|
|-0----0----0--|-(0)--------|-8----8----8--|-(8)----|
|-0----0----0--|-(0)--------|-8----8----8--|-(8)----|


  G5                          D5
  Q.   Q.   Q    +W           Q.   Q.   Q    +W
|--------------|------------|--------------|--------|
|--------------|------------|--------------|--------|
|--------------|------------|--------------|--------|
|-5----5----5--|-(5)--------|-0----0----0--|-(0)----|
|-5----5----5--|-(5)--------|-0----0----0--|-(0)----|
|-5----5----5--|-(5)--------|-0----0----0--|-(0)----|
|
| Q.   Q.   Q    +W           Q.   Q.   Q    +W
|--------------|------------|--------------|--------|
|--------------|------------|--------------|--------|
|--------------|------------|--------------|--------|
|-5----5----5--|-(5)--------|-0----0----0--|-(0)----|
|-5----5----5--|-(5)--------|-0----0----0--|-(0)----|
|-5----5----5--|-(5)--------|-0----0----0--|-(0)----|


  D5                                Bb5
  Q.   Q.    Q    +H      H          Q.   Q.   Q    +W
|---------------|---------------||-------------0--|-(0)----|
|---------------|---------------||o-/3----6----8--|-(8)----|
|-7----7----/9--|-(9)----10\----||----------------|--------|
|---------------|---------------||----------------|--------|
|-5----5----/7--|-(7)-----8\----||o---------------|--------|
|---------------|---------------||----------------|--------|
|
| Q.   Q.    Q    +W                 Q.   Q.   Q    +W
|---------------|---------------||----------------|--------|
|---------------|---------------||o---------------|--------|
|---------------|---------------||----------------|--------|
|-0----0-----0--|-(0)-----------||---8----8----8--|-(8)----|
|-0----0-----0--|-(0)-----------||o--8----8----8--|-(8)----|
|-0----0-----0--|-(0)-----------||---8----8----8--|-(8)----|


  G5                             D5
  Q.   Q.     Q     +W            Q.    Q.    Q     +W
|----------------|-------------|-17--------------|---------|
|-3----6----/18--|-(18)--------|-------15----13--|-(13)----|
|----------------|-------------|-----------------|---------|
|----------------|-------------|-----------------|---------|
|----------------|-------------|-----------------|---------|
|----------------|-------------|-----------------|---------|
|
| Q.   Q.     Q     +W            Q.    Q.    Q     +W
|----------------|-------------|-----------------|---------|
|----------------|-------------|-----------------|---------|
|----------------|-------------|-----------------|---------|
|-5----5------5--|--(5)--------|--0-----0-----0--|--(0)----|
|-5----5------5--|--(5)--------|--0-----0-----0--|--(0)----|
|-5----5------5--|--(5)--------|--0-----0-----0--|--(0)----|


                                         Intrumental vamp
  D5                                      Bb5
   Q    E  Q.    Q     +W                  Q.   Q.    Q     +W
|---------------17--|-(17)---------||-||--------------0--|--(0)------------|
|------15-----------|-------------o||-||o-/3----6-----8--|--(8)------------|
|-17------17--------|--------------||-||-----------------|-----------------|
|-------------------|--------------||-||-----------------|-----------------|
|-------------------|-------------o||-||o----------------|-----------------|
|-------------------|--------------||-||-----------------|-----------------|
|
|  Q.      Q.    Q     +W                  Q.   Q.    Q     +W
|-------------------|--------------||-||-----------------|-----------------|
|-------------------|-------------o||-||o----------------|-----------------|
|-------------------|--------------||-||-----------------|-----------------|
|--0-------0-----0--|--(0)---------||-||---8----8-----8--|--(8)------------|
|--0-------0-----0--|--(0)--------o||-||o--8----8-----8--|--(8)------------|
|--0-------0-----0--|--(0)---------||-||---8----8-----8--|--(8)------------|
|
|                                         Gtr IV
|  W                    W                  Q.   Q.    Q     +E  Q.   Q  Q
|-------------------|--------------||-||---1----5-----8--|--(8)-5----3--5--|
|-------------------|-------------o||-||o--3----3----10--|-(10)-6----5--6--|
|-------------------|--------------||-||-----------------|-----------------|
|-------------------|--------------||-||-----------------|-----------------|
|-------------------|-------------o||-||o----------------|-----------------|
|-------------------|--------------||-||-----------------|-----------------|


  G5                                 D5
  Q.   Q.     Q     +W                Q.    Q.    Q     +W
|----------------|-----------------|-17--------------|-----------------|
|-3----6----/18--|-(18)------------|-------15----13--|-(13)------------|
|----------------|-----------------|-----------------|-----------------|
|----------------|-----------------|-----------------|-----------------|
|----------------|-----------------|-----------------|-----------------|
|----------------|-----------------|-----------------|-----------------|
|
| Q.   Q.     Q     +W                Q.    Q.    Q     +W
|----------------|-----------------|-----------------|-----------------|
|----------------|-----------------|-----------------|-----------------|
|----------------|-----------------|-----------------|-----------------|
|-5----5------5--|--(5)------------|--0-----0-----0--|--(0)------------|
|-5----5------5--|--(5)------------|--0-----0-----0--|--(0)------------|
|-5----5------5--|--(5)------------|--0-----0-----0--|--(0)------------|
|
| Q.   Q.     Q     +E  Q.   Q  Q     Q.    Q.    Q     +E  Q.   Q  Q
|-1----5------8--|--(8)-5----3--5--|--1-----5-----8--|--(8)-5----3--5--|
|-3----3-----10--|-(10)-6----5--6--|--3-----3----10--|-(10)-6----5--6--|
|----------------|-----------------|-----------------|-----------------|
|----------------|-----------------|-----------------|-----------------|
|----------------|-----------------|-----------------|-----------------|
|----------------|-----------------|-----------------|-----------------|


                                         Interlude
  D5                                      Bb5
                                          Gtr I
                                           <
   Q    E  Q.    Q     +W                  W           +W
|---------------17--|-(17)-------------||-10--------|-(10)----|
|------15-----------|-----------------o||-----------|---------|
|-17------17--------|------------------||-----------|---------|
|-------------------|------------------||-----------|---------|
|-------------------|-----------------o||-----------|---------|
|-------------------|------------------||-----------|---------|
|
|                                          >
|  Q.      Q.    Q     +W                  W           +W
|-------------------|------------------||-----------|---------|
|-------------------|-----------------o||-----------|---------|
|-------------------|------------------||-----------|---------|
|--0-------0-----0--|--(0)-------------||--8--------|--(8)----|
|--0-------0-----0--|--(0)------------o||--8--------|--(8)----|
|--0-------0-----0--|--(0)-------------||--8--------|--(8)----|
|
|                                         Gtr V
|                                          <
|  Q.      Q.    Q     +E  Q.   Q  Q       W           +W
|--1-------5-----8--|--(8)-5----3--5---||-----------|---------|
|--3-------3----10--|-(10)-6----5--6--o||-----------|---------|
|-------------------|------------------||-----------|---------|
|-------------------|------------------||--8--------|--(8)----|
|-------------------|-----------------o||--8--------|--(8)----|
|-------------------|------------------||--8--------|--(8)----|


  G5                      D5
  Gtr I
  <                        <
  W          +W            W           +W
|-5--------|-(5)--------|-10--------|-(10)----|
|----------|------------|-----------|---------|
|----------|------------|-----------|---------|
|----------|------------|-----------|---------|
|----------|------------|-----------|---------|
|----------|------------|-----------|---------|
|
| Gtr V
| <                        <
| W          +W            W           +W
|----------|------------|-----------|---------|
|----------|------------|-----------|---------|
|----------|------------|-----------|---------|
|-5--------|-(5)--------|--0--------|--(0)----|
|-5--------|-(5)--------|--0--------|--(0)----|
|-5--------|-(5)--------|--0--------|--(0)----|


  A5/D        F/D          Bb5
   <           <            <
   W           W            W           +W
|-12--------|--8---------|-10--------|-(10)----|
|-----------|------------|-----------|---------|
|-----------|------------|-----------|---------|
|-----------|------------|-----------|---------|
|-----------|------------|-----------|---------|
|-----------|------------|-----------|---------|
|
| Gtr V
|  <                        <
|  W           W            W           +W
|-----------|------------|-----------|---------|
|-----------|------------|-----------|---------|
|-----------|------------|-----------|---------|
|--2--------|--3---------|--8--------|--(8)----|
|--0--------|-(0)--------|--8--------|--(8)----|
|--0--------|-(0)--------|--8--------|--(8)----|


  G5                      D5
  <                        <
  W          +W            W           +W
|-5--------|-(5)--------|-10--------|-(10)----|
|----------|------------|-----------|---------|
|----------|------------|-----------|---------|
|----------|------------|-----------|---------|
|----------|------------|-----------|---------|
|----------|------------|-----------|---------|
|
| <                        <
| W          +W            W           +W
|----------|------------|-----------|---------|
|----------|------------|-----------|---------|
|----------|------------|-----------|---------|
|-5--------|-(5)--------|--0--------|--(0)----|
|-5--------|-(5)--------|--0--------|--(0)----|
|-5--------|-(5)--------|--0--------|--(0)----|


  A5/D        F/D          Bb5
   <           <            <
   W           W            W           +W
|-10--------|--8---------|-10--------|-(10)----|
|-----------|------------|-----------|---------|
|-----------|------------|-----------|---------|
|-----------|------------|-----------|---------|
|-----------|------------|-----------|---------|
|-----------|------------|-----------|---------|
|
|  <                        <
|  W           W            W           +W
|-----------|------------|-----------|---------|
|-----------|------------|-----------|---------|
|-----------|------------|-----------|---------|
|--2--------|--3---------|--8--------|--(8)----|
|--0--------|-(0)--------|--8--------|--(8)----|
|--0--------|-(0)--------|--8--------|--(8)----|


  G5                      D5
  <                        <
  W          +W            W           +W
|-5--------|-(5)--------|-10--------|-(10)----|
|----------|------------|-----------|---------|
|----------|------------|-----------|---------|
|----------|------------|-----------|---------|
|----------|------------|-----------|---------|
|----------|------------|-----------|---------|
|
| <                        <
| W          +W            W           +W
|----------|------------|-----------|---------|
|----------|------------|-----------|---------|
|----------|------------|-----------|---------|
|-5--------|-(5)--------|--0--------|--(0)----|
|-5--------|-(5)--------|--0--------|--(0)----|
|-5--------|-(5)--------|--0--------|--(0)----|


  A5/D        F/D          Bb5
   <           <            <
   W           W            W           +W
|-12--------|--8---------|-10--------|-(10)----|
|-----------|------------|-----------|---------|
|-----------|------------|-----------|---------|
|-----------|------------|-----------|---------|
|-----------|------------|-----------|---------|
|-----------|------------|-----------|---------|
|
|  <                        <
|  W           W            W           +W
|-----------|------------|-----------|---------|
|-----------|------------|-----------|---------|
|-----------|------------|-----------|---------|
|--2--------|--3---------|--8--------|--(8)----|
|--0--------|-(0)--------|--8--------|--(8)----|
|--0--------|-(0)--------|--8--------|--(8)----|


                         Outro
  G5                      D5             D5
                          Gtr I
  >
  W          +W           E E E E E  E E E   E E E E H
|-5--------|-(5)--------|------------------|--------------|
|----------|------------|------------6-6---|--------------|
|----------|------------|------------9-9---|--------------|
|----------|------------|-0-0---0--------0-|-0-0---0------|
|----------|------------|-0-0---0--------0-|-0-0---0------|
|----------|------------|-0-0---0--------0-|-0-0---0------|
|
|                         Gtr II
| <
| W          +W           E E E E Q.     E   E E E E H
|----------|------------|------------------|--------------|
|----------|------------|------------------|--------------|
|----------|------------|------------------|--------------|
|-5--------|-(5)--------|-0-0---0--------0-|-0-0---0------|
|-5--------|-(5)--------|-0-0---0--------0-|-0-0---0------|
|-5--------|-(5)--------|-0-0---0--------0-|-0-0---0------|


  D5               D5             D5                 D5
  E E E E Q.   E   E E E E H      E E E E E  E E E   E E E E H
|----------------|--------------|------------------|--------------|
|----------------|--------------|------------6-6---|--------------|
|----------------|--------------|------------9-9---|--------------|
|-0-0---0------0-|-0-0---0------|-0-0---0--------0-|-0-0---0------|
|-0-0---0------0-|-0-0---0------|-0-0---0--------0-|-0-0---0------|
|-0-0---0------0-|-0-0---0------|-0-0---0--------0-|-0-0---0------|
|
| E E E E Q.   E   E E E E H      E E E E Q.     E   E E E E H
|----------------|--------------|------------------|--------------|
|----------------|--------------|------------------|--------------|
|----------------|--------------|------------------|--------------|
|-0-0---0------0-|-0-0---0------|-0-0---0--------0-|-0-0---0------|
|-0-0---0------0-|-0-0---0------|-0-0---0--------0-|-0-0---0------|
|-0-0---0------0-|-0-0---0------|-0-0---0--------0-|-0-0---0------|


   D5               D5   D5
               PM--|    PM----------------------|
  E E E E Q.   E   E Q  H    +E    +W           +W
|----------------|---------------|------------|--------|
|----------------|---------------|------------|--------|
|----------------|---------------|------------|--------|
|-0-0---0------0-|-0-3--0----(0)-|-(0)--------|-(0)----|
|-0-0---0------0-|-0-7--0----(0)-|-(0)--------|-(0)----|
|-0-0---0------0-|-0----0----(0)-|-(0)--------|-(0)----|
|
|              PM--|    PM----------------------|
| E E E E Q.   E   E Q  H    +E    +W           +W
|----------------|---------------|------------|--------|
|----------------|---------------|------------|--------|
|----------------|---------------|------------|--------|
|-0-0---0------0-|-0-3--0----(0)-|-(0)--------|-(0)----|
|-0-0---0------0-|-0-7--0----(0)-|-(0)--------|-(0)----|
|-0-0---0------0-|-0----0----(0)-|-(0)--------|-(0)----|


   PM------------------------------------|
  +W           +W           +W           +W
|------------|------------|------------|--------*|
|------------|------------|------------|--------*|
|------------|------------|------------|--------*|
|-(0)--------|-(0)--------|-(0)--------|-(0)----*|
|-(0)--------|-(0)--------|-(0)--------|-(0)----*|
|-(0)--------|-(0)--------|-(0)--------|-(0)----*|
|
|  PM------------------------------------|
| +W           +W           +W           +W
|------------|------------|------------|--------*|
|------------|------------|------------|--------*|
|------------|------------|------------|--------*|
|-(0)--------|-(0)--------|-(0)--------|-(0)----*|
|-(0)--------|-(0)--------|-(0)--------|-(0)----*|
|-(0)--------|-(0)--------|-(0)--------|-(0)----*|
Composición de Underøath
Colaboración y revisión:
  • Rafael S.A
  • Murilo
49 vistas
    • ½ Tono
    • A
    • Bb
    • B
    • C
    • Db
    • D
    • Eb
    • E
    • F
    • F#
    • G
    • Ab
  • Agregar a la lista

    0 comentarios

    Ver todos los comentarios

    ¿Lograste tocar?

    1 Tocaron 0 Aún no

    ¡Graba un video tocando Writing On The Walls y envíanoslo!

    00:00 / 00:00
    Outros vídeos desta música
    Repetir Calidad Automático
    Outros vídeos desta música
    00:00 / 00:00
    Automático
    OK