Cifra Club

Young And Aspiring

Underoath

Tab de bajo: Principal
Já pensou em usar uma coleção de roupas do Cifra Club? Responda as perguntas abaixo e nos ajude nessa missão! →
just follow the guitat rhythm


Intro

G|-------------------------------------------------------------------------------------------------|
D|-------------------------------------------------------------------------------------------------|
A|------777--7-77-7777----------777----------------------------------------------------------------|
D|-222------------------0--2222-----0-0000000------------------------------------------------------|


G|-------------------------------------------------------------------------------------------------|
D|-------------------------------------------------------------------------------------------------|
A|-22222222222222222222222222222222----------------------------------------------------------------|
D|-------------------------------------------------------------------------------------------------|

G|-------------------------------------------------------------------------------------------------|
D|-------------------------------------------------------------------------------------------------|
A|------777--7-77-777-----------777----------------------------------------------------------------|
D|-222------------------0--2222-----0~-------------------------------------------------------------|

G|-------------------------------------------------------------------------------------------------|
D|-------------------------------------------------------------------------------------------------|
A|-222222222222222222222222222222222---------------------------------------------------------------|
D|-------------------------------------------------------------------------------------------------|

Verse
G|----------------------------|
D|----------------------------|
A|----------------------------|
D|-2~--------10~----------7~--|

G|-------------------------------------------------------------------------------------------------|
D|-------------------------------------------------------------------------------------------------|
A|-------------------------------------------------------------------------------------------------|
D|-2222222222222222--10101010101010101010101010101010-7777777777777777-55555555-77777777-10--------|

Chorus

G|----------------------------------------------------------------------------------|
D|----------------------------------------------------------------------------------|
A|----------------------------------------------------------------5555555555555555--|
D|-2222222222222222-10101010101010101010101010101010-77777777777777777--------------|

First Breakdown
G|-------------------------------------------------------------------------------------------------|
D|-------------------------------------------------------------------------------------------------|
A|-------------------------------------------------------------------------------------------------|
D|-222x---222x-222x--222x---222x-222x-2x2x2x2x2x2x-------------------------------------------------|

Second Breakdown
G|-------------------------------------------------------------------------------------------------|
D|-------------------------------------------------------------------------------------------------|
A|-3-333-33-33-3333-5--555-55-55-5555-3-333-33-33-3333--7-7-777-5-55-5555--------------------------|
E|-------------------------------------------------------------------------------------------------|

Interlude
G|-------------------------------------------------------------------------------------------------|
D|-------------------------------------------------------------------------------------------------|
A|-------------------------------------------------------------------------------------------------|
D|-2---------10-----------7------------------------------------------------------------------------|

Pre-Chorus
G|-------------------------------------------------------------------------------------------------|
D|-------------------------------------------------------------------------------------------------|
A|-------------------------------------------------------------------------------------------------|
D|-2222222222222222--10101010101010101010101010101010-7777777777777777-55555555-77777777-10--------|

Chorus
G|----------------------------------------------------------------------------------|
D|----------------------------------------------------------------------------------|
A|----------------------------------------------------------------5555555555555555--|
D|-2222222222222222-10101010101010101010101010101010-77777777777777777--------------|

Ending
G|-------------------------------------------------------------------------------------------------|
D|-------------------------------------------------------------------------------------------------|
A|-------------------------------------------------------------------------------------------------|
D|-22x-22x----222x222x-22x--22x---222x222x---------------------------------------------------------|
Composición de Underøath
19 vistas

0 comentarios

Ver todos los comentarios

¿Lograste tocar?

0 Tocaron 0 Aún no

¡Graba un video tocando Young And Aspiring y envíanoslo!

00:00 / 00:00
Outros vídeos desta música
Repetir Calidad Automático
Outros vídeos desta música
00:00 / 00:00
Automático
OK