Cifra Club

Youre Ever So Inviting

Underoath

Cifrado: Principal (guitarra y guitarra eléctrica)
Já pensou em usar uma coleção de roupas do Cifra Club? Responda as perguntas abaixo e nos ajude nessa missão! →
tono: A
Intro:
e|-----------------------|
b|-----------------------|
g|-9--------10----11-----|
d|-x(x37)---x(x8)-x(x8)--|
a|-7--------8-----9------|
d|-----------------------|

Refrão guitar 1
e|------------------------------|
b|------------------------------|
g|------------------------------|
d|-2-----3-----5------0-0-xx-0--|x4
a|-2(x8)-3(x8)-5(x12)-0-0-xx-0--|
d|-2-----3-----5------0-0-xx-0--|

Refrão guitarra 2
e|--------------------------------------------------------| 
b|--------------------------------------------------------| 
g|-14----12----17----9-----10----7-----5-----12----14-----| 
d|-x(x8)-x(x8)-x(x8)-x(x8)-x(x8)-x(x8)-x(x4)-x(x4)-x(x16)-|  
a|-12----10----15----7-----8-----5-----3-----10----12-----|
d|--------------------------------------------------------|

verso:  ambas guitarras
e|---------------------|
bv---------------------|
g|---------------------|
d|-0------3-----5-2-7--|x2
a|-0~-----3~----5-2-7--|
d|-0------3-----5-2-7--|

Pre-Refrão Ambras guitarras
e|-------------------------------------------|
b|-------------------------------------------|
g|-12-----10-----5------7-----12-----14------|
d|-x(x12)-x(x12)--x(x8)-x(x8)-x(x12)-x(x12)--|
a|-10-----8------3------5-----10-----12------|
d|-------------------------------------------|

e|-------------------------------------|
b|-------------------------------------|
g|-17-15-17-15-19-----------7-5-7-5-3--|
d|-------------------------------------|
a|-------------------------------------|
d|-------------------------------------|

Interlúdio: ambas guitarras
e|--------------------------------------------------|
b|--------------------------------------------------|
g|-------------------------------------------7------|
d|-3------5------0------3------5------0------x(x15)-|
a|-3(x15)-5(x15)-0(x32)-3(x15)-5(x15)-0(x32)-5------|
d|-3------5------0------3------5------0-------------|

e|--------------------------------------|
b|--------------------------------------|
g|--------------------------------------|
d|-7-5-3----10-----------7-5-3-------12-|x4
a|--------------------------------------|
d|--------------------------------------|

  Guitarra 1
e|----------------------|
b|----------------------|
g|----------------------|
d|-0-5-5-5-5-5-5--5xx3--|x8
a|-0-5-5-5-5-5-5--5xx3--|
d|-0-5-5-5-5-5-5--5xx3--|

Guitarra 2
e|------------------------|    
b|------------------------|    
g|------------------------|x3  
d|-7-3-7-3-7---7-3-7-3-2--|
a|------------------------|
d|------------------------|

outro
e|--------|
b|--------|
g|--------|
d|--7-3-2-|
a|--7-3-2-|
d|--7-3-2-|
Composición de Underøath
Colaboración y revisión:
  • Rafael
14 vistas
    • ½ Tono
    • A
    • Bb
    • B
    • C
    • Db
    • D
    • Eb
    • E
    • F
    • F#
    • G
    • Ab
  • Agregar a la lista

    0 comentarios

    Ver todos los comentarios

    ¿Lograste tocar?

    0 Tocaron 0 Aún no

    ¡Graba un video tocando Youre Ever So Inviting y envíanoslo!

    00:00 / 00:00
    Outros vídeos desta música
    Repetir Calidad Automático
    Outros vídeos desta música
    00:00 / 00:00
    Automático
    OK